Josh Hamburger - Remembering You Chords & Tabs

 

Remembering You Chords & Tabs

Josh Hamburger Chords & Tabs

Version: 1 Type: Tab 0 ratings
1 star 2 stars 3 stars 4 stars 5 stars
comments

Remembering You Tab

   
Song: Remembering You
Artist: Josh Hamburger
Tabbed by: Josh Hamburger
Note: This is  of my first songs ever. It has some kick ass riffs   but some of it doesnt flow very well.
[ Tab from: http://www.guitartabs.cc/tabs/j/josh_hamburger/remembering_you_tab.html ]
       Intro
E|-----------------------------------------------------------------------|                                   Standard Tuning
B|--------3--------------1-----------------------------------------------|                                      e-Easter
G|-------------0----------------|        repeat twice--------------------|          B-Bunnies
D|-----------------------------------------------------------------------|                                       G-Get
A|-----------------------------------------------------------------------|                                       D-Drunk
E|---3------------3-3-------3--------------------------------------------|                                       A-At
                                                                                        E-Easter
        Riff 1
e|-----------------------------------------------------------------------------|
B|-----------------------------------------------------------------------------|
G|-----------------------------------------------------------------------------|
D|-----------------------------------------------------------------------------|
A|--7-play 8 times-------8---play 8 times----7-7-7-7--------7--8---7--7--------|
E|--5------"---------------7---------"---- ------6-6-6-6---------5--7---6--6---|
        ^^^^^^^to be played fast^^^^^^^^^       ^^^^^ play these four strokes slower
        Riff 2
e|----------3-----3-------------------------------------|
B|-------------1----------------------------------------|
G|-----------------------0------------------------------|
D|---------------------------3--------------------------|
A|---0--------------------------3-----------------------|
E|---------------------------------0--------------------|

        Riff 3 (thanx to Jack Parker and the Jack Parker band) This Riff is to be played slow
e|----------------------------|
B|----------------------------|
G|----------------------------|
D|-------------2-2-2-2-2-2----|
A|-3-3-3-3-3-3-0-0-0-0-0-0----|
E|-1-1-1-1-1-1----------------|


	Solo
e|--2----33--------2----33------444444----22--*3----444444---7--6---4-------------|
B|--4----55--------4----55------444444----22--*3----444444---7--6---4-------------|
G|--------------------------------------------------------------------------------|
D|--------------------------------------------------------------------------------|
A|--------------------------------------------------------------------------------|
E|--------------------------------------------------------------------------------|

Once I write out some word to the song  I can tell you the oder to be played
Comments