Joseph Arthur - Honey And The Moon Chords & Tabs

 

Honey And The Moon Chords & Tabs

Joseph Arthur Chords & Tabs

Version: 3 Type: Tab 0 ratings
1 star 2 stars 3 stars 4 stars 5 stars
comments

Honey And The Moon Tab

   
-------------------------------------------------------------------------------
			     HONEY AND THE MOON - Joseph Arthur
-------------------------------------------------------------------------------
Tabbed by: bltcsolo

This isn't correct, but it's the way that I play it, and it sounds fairly close
to the song, feel free to make correction. If you got questions, just send me a
private message.



 
Intro

    G        D/A    C       Dsus4           Em           Bm              
e|------3------5---------------3------------7----------------2------------|
B|---0h3----------------1---------------7h8--------------2h3--------------|
G|-0---------2---------------2------------------7h9--------------2h4------|
D|---------0---------2-----0----------9-------9--------4-------4----------|
A|-----------------3----------------7----------------2--------------------|
E|------------------------------------------------------------------------|



Verse (Same as intro)


Don't know why I'm still afraid If you weren't real I would make you up, now
I wish that I could follow through I know that your love is true And deep, As the sea.
    G        D/A    C       Dsus4           Em           Bm              
e|------3------5---------------3------------7----------------2------------|
B|---0h3----------------1---------------7h8--------------2h3--------------|
G|-0---------2---------------2------------------7h9--------------2h4------|
D|---------0---------2-----0----------9-------9--------4-------4----------|
A|-----------------3----------------7----------------2--------------------|
E|------------------------------------------------------------------------| (x 2)


Prelude

  But right,   now.    Everything you want is wrong,
         C      D              G         D  
e|----------------2--------------3---------2------------------------------|
B|--------1------------------0h3------------------------------------------|
G|--------------2----------0-------------2--------------------------------|
D|------2-----0-----------------------0-----------------------------------|
A|----3-------------------------------------------------------------------|
E|------------------------------------------------------------------------|
[ Tab from: http://www.guitartabs.cc/tabs/j/joseph_arthur/honey_and_the_moon_tab_ver_3.html ]
  And right,   now.     All your dreams are waking up,
        C       D             G         D
e|----------------2--------------3---------2------------------------------|
B|--------1------------------0h3------------------------------------------|
G|--------------2----------0-------------2--------------------------------|
D|------2-----0-----------------------0-----------------------------------|
A|----3-------------------------------------------------------------------|
E|------------------------------------------------------------------------|

 
  And right,   now.     I wish I could follow you
       C        D             G              Em                Em
e|----------------2--------------3--------------7-------------------------|
B|--------1------------------0h3------------7h8---------------------------|
G|--------------2----------0------------------------7h9------7h9----------|
D|------2-----0---------------------------9-------9-------9---------------|
A|----3---------------------------------7---------------7-----------------|
E|------------------------------------------------------------------------|


  To the shores,         Of freedom,  
    Bm               Bm           Bm
e|---------2--------------2---------------------|
B|-----2h3------------2h3-------2------2--------|
G|-------------2h4----------2h4----2h4----------|
D|-----------4----------------------------------|
A|-2----------------2---------------------------|
E|----------------------------------------------|


               G  
Where no one lives.

D, C, D, Em, Bm  (Strum these chords or play the intro) 

    G        D/A    C       Dsus4           Em           Bm              
e|------3------5---------------3------------7----------------2------------|
B|---0h3----------------1---------------7h8--------------2h3--------------|
G|-0---------2---------------2------------------7h9--------------2h4------|
D|---------0---------2-----0----------9-------9--------4-------4----------|
A|-----------------3----------------7----------------2--------------------|
E|------------------------------------------------------------------------|
 
The next verse is pretty much the same with drums and a few other instruments
added, but if you follow the same tabs as the first verse it should be fine.

If you feel lazy just play the chord progression of: 

G, D, C, Dsus4,  Em,  Bm    for the rest of the song.


Chords

G     - 320033
D     - xx0232
C     - x32010
Dsus4 - xx0233
Em    - x79987
Bm    - x24432
Comments