Joselo - Dejame Intentar Chords & Tabs

 

Dejame Intentar Chords & Tabs

Joselo Chords & Tabs

Version: 1 Type: Tab 0 ratings
1 star 2 stars 3 stars 4 stars 5 stars
comments

Dejame Intentar Tab

http://www.vh1.com/artists/az/joselo/artist.jhtml

Band: Joselo
Song: Dejame Intentar


tabbed by jam9383@yahoo.com


Intro/Bridge

e---------------------------------------------------------------------|
B-----------------------------------3---------------------------------|
G--------2-------2p0-----------2------4-------------------------------|
D-----2-------4------------2------------4-----------------------------|
A--0-------0-----------0----------------------------------------------|
E---------------------------------------------------------------------|

Verse

slight rhythm changes

e------------------4------2-------------------------------------------|
B-----2------3-----5------3-------------------------------------------|
G-----2------4-----6------4-------------------------------------------|
D-----2------4-----6------4-------------------------------------------|
A--0------2------4-----2----------------------------------------------|
E---------------------------------------------------------------------|

Chorus
[ Tab from: http://www.guitartabs.cc/tabs/j/joselo/dejame_intentar_tab.html ]
e---------------------------------------------------------------------|
B----2-2-2-2-2--4--5-5-5-5-5--4-4--5--7--9--9--9--9--9----------------|
G----3-3-3-3-3--5--6-6-6-6-6--5-5--6--8--10-10-10-10-10---------------|
D----4-4-4-4-4--6--7-7-7-7-7--6-6--7--9--11-11-11-11-11---------------|
A----4-4-4-4-4--6--7-7-7-7-7--6-6--7--9--11-11-11-11-11---------------|
E----2-2-2-2-2--4--5-5-5-5-5--4-4--5--7--9--9--9--9--9----------------|

Outro

e---------------------------------------------------------------------|
B---------------------------------------------------------------------|
G---------------------------------------------------------------------|
D---------------------------------------------------------------------|
A-----------------4-5-7-----------------------------------------------|
E---5-----2-4-5-------------------------------------------------------|

I want to do most of the oso album and would like to someone to collaborate
in doing so, making some, checking some of mines, contact me if
interested

quiero hacer todo el disco Oso I necessito alguien de collaborar con que
pueda hacer unos I poder dicir si unos de los que hechos si estan bien
si te interesa caile con un e-mail.
Comments