Jose Gonzalez - Save Your Day Chords & Tabs

 

Save Your Day Chords & Tabs

Jose Gonzalez Chords & Tabs

Version: 1 Type: Chords

Save Your Day Chords

   
-----------------------------------------------------------------------------
10. Save your day
-----------------------------------------------------------------------------
Tabbed by: Arto Schürch
Email:     arto_schuerch@gmx.ch



Tuning: D,A,D,F#,B,e

(This is the only strummed song on the whole album. The rhythm is quite easy 
to find out and I was too lazy to write it down, so I only wrote down the 
chords, or rather bassline changes (in the order appearing). Make sure that 
you strum more and harder in the second verse):

I don't know if the names of the chords are correct...
[ Tab from: http://www.guitartabs.cc/tabs/j/jose_gonzalez/save_your_day_crd.html ]
Intro and Verses:		          +    chords playes in the Outro:

     D   Gb/D   E/D  Db/D    D    Gmaj6		   A6  Db/D6  Gmaj6  D
e |-*0--|--0*-|--0*-|--0--|--0--|--0--|         |--0--|-----|-----|--0--|
B |--3--|--3--|--3--|--3--|--3--|-(3)-|         |--5--|--0--|--3--|--3--|
F#|--3--|--3--|--3--|--3--|--3--|--0--|         |--0--|--3--|--0--|--3--|
D |--0--|--4--|--2--|--0--|--0--|--5--|         |--7--|--0--|--5--|--0--|
A |--0--|-----|-----|--4--|--5**|--5--|         |--7--|--4--|--5--|--0--|
D |--0--|-----|-----|-----|-----|--5--|         |--7--|-----|--5--|--0--|

*sometimes (especially in the second verse) this is a 5 (a) 
**here the bassline goes 4-5-4-0