Jose Gonzalez - Heartbeats Chords & Tabs

 

Heartbeats Chords & Tabs

Jose Gonzalez Chords & Tabs

Version: 2 Type: Tab 0 ratings
1 star 2 stars 3 stars 4 stars 5 stars
comments

Heartbeats Tab

   
Låga E ska stämmas ned till D#.
Alla "småsaker" i låten är inte med här, jag rekommenderar att man lyssnar på låten för 
få det på samma sätt som orginalet.

THE LOV E STRING SHOULD BE TUNED DOWN TO D#.


E---------------------------------------------------------|
B---------------------------------------------------------|
G---------------------------------------------------------|
D--------------8---------------------8-----------8--------|
A--------5h6 6-----5h6-6-------5h6-6--5h6--5h6------------|
D#-(7)-0-------------------7--0---------------------------|

E---------------------------------------------------------|
B---------------------------------------------------------|
G---------------------------------------------------------|
D--------5-5------5-5----------5--5-----5--5--------------|
A--1--3-3----1h3--------------6-----5h6----------Repeat---| x1
D#-----------------------4--5-----------------------------|

One night..
E---------------------------------------------------------|
B---------------------------------------------------------|
G------------------------------------------------8--------|
D--------------8---------------------8-----------8--------|
A--------5h6 6-----5h6---------5h6----5h6--5h6------------|
D#--7-0-------------------7--0----------------------------|
[ Tab from: http://www.guitartabs.cc/tabs/j/jose_gonzalez/heartbeats_tab_ver_2.html ]
E---------------------------------------------------------|
B---------------------------------------------------------|
G---------------------------------------------------------|
D--------5-5------5-5----------5--5-----5--5--------------|
A--1--3-3----1h3--------------6-----5h6-------------------|
D#-----------------------4--5-----------------------------|

Stick: And you..
E---------------------------------------------------------|
B---------------------------------------------------------|
G---------0--------------0--------------0------------0----|
D-----1-----3-------1-------3-------1-----3------1------3-|
A--1-------------1---------------1------------1-----------|
D#--------------------------------------------------------|

E---------------------------------------------------------|
B---------------------------------------------------------|
G---------------------------------------------------------|
D--------5-------------5-----------5------------5---------|
A-----6----8--------6----8------6----8-------6----8-------|
D#-5-------------5-----------5------------5---------------|

E
B---------------------------------------------------------|
G---------0------------3-3-0-------------0------------0---|
D-----1-----3-------1--------3-------1-----3------1----3--|
A--1-------------1---------------1------------1-----------|
D#--------------------------------------------------------|

After the stick:
E---------------------------------------------------------|
B--------------------------6------------------------------|
G----------5-----------5----------------------------------|
D-------5-----------5-------------------------------------|
A--3---3-------3---3--------------------------------------|
D#--------------------------------------------------------|
Comments