Jose Gonzalez - Hearbeats Chords & Tabs

 

Hearbeats Chords & Tabs

Jose Gonzalez Chords & Tabs

Version: 3 Type: Tab 0 ratings
1 star 2 stars 3 stars 4 stars 5 stars
comments

Hearbeats Tab

   
Tabbed by: harry jackson
Email:

Tuning: DADF#Be         Capo 1st Fret

  the whole intro part is played during the lyrics
Intro:

e|---------------------------------------------------------------------------|
B|---------------------------------------------------------------------------|
F#|-------------------------3--------------------------3---------------------|
D|---------------------------------------------------------------------------|
A|--0------5------4h5-----------5-------------4h5-----------5----------------|
D|-----------------------0---------------------------0-----------------------|
                                                                       x2
e|---------------------------------------------------------------------------|
B|---------------------------------------------------------------------------|
F#|---------------------0-----------------------------0----------------------|
D|---------------------------------------------------------------------------|
A|----0-----2---------------2------------0h2-------------2-------------------|
D|---------------0-------------0---------------0-----------------------------|

e|------------------------------------------------------------------------------|
B|------------------------------------------------------------------------------|
F#|---------------------0-----------------------0-------------------------------|
D|-------------------0-----0-------------------------0--------------------------|
A|-----------------5--------------4h5-------5-------------0---------------------|
D|----3------4--------------------------0---------------------------------------|
end of intro

e|---------------------------------------------------------------------------|
B|---------------------------------------------------------------------------|
F#|----------0------------0-------------0---------------0--------------------|
D|---------0----0--------0----0-------0-----0---------0----0-----------------|
A|-------7-------------7------------7---------------7------------------------|
D|-----7-------------7-------------7--------------7--------------------------|
And you...............................you new the hands of the
[ Tab from: http://www.guitartabs.cc/tabs/j/jose_gonzalez/hearbeats_tab_ver_3.html ]
e|---------------------------------------------------------------------------|
B|---------------------------------------------------------------------------|
F#|----------0--------------0----------------0-------------0-----------------|
D|---------0----0--------0----0------------0----0--------0-----0-------------|
A|-------5-------------5-----------------5--------------5--------------------|
D|-----5-------------5----------------5---------------5----------------------|
    Devil


e|---------------------------------------------------------------------------|
B|---------------------------------------------------------------------------|
F#|------------0----------------0----------------0----------------0----------|
D|----------0----0-----------0-----0-----------0----0----------0------0------|
A|--------7----------------7-----------------7---------------7---------------|
D|------7----------------7-----------------7---------------7-----------------|
And you......................................kept us awake with


e|-----------------------------------------------------------------------------|
B|-----------------------------------------------------------------------------|
F#|-----------0-------------------0-------------0-----------0------------------|
D|----------0-----0-------------0----0-------0-----0-------0----0--------------|
A|--------5--------------------5------------5-------------5--------------------|
D|------5--------------------5-------------5-------------5---------------------|
wolves teeth, sharing different heartbeats       in one


e|----------------------------------------------------------------|--------------|
B|----------------------------------------------------------------|---3----------|
F#|-------------0-----------------------------0-------------------|---0----------|
D|----------------------------------------------------------------|---0----------|
A|-----2-------------2--------------2--------------------2--------|---0----------|
D|---------0--------------0--------------0--------------------0---|--------------|
     night
                                                              Ending chord

| /  slide up
| \  slide down
| h  hammer-on
| p  pull-off
| ~  vibrato
| +  harmonic
| x  Mute note
Comments