Jose Gonzalez - Far Away Chords & Tabs

 

Far Away Chords & Tabs

Jose Gonzalez Chords & Tabs

Version: 2 Type: Tab 0 ratings
1 star 2 stars 3 stars 4 stars 5 stars
comments

Far Away Tab

   
Tuning

B-A-D-A-B-e

Intro (Arpegiate this chord once freely)

E|-----------|
B|---------0-|
A|-------0---|
D|-----4-----|
A|---2-------|
B|-0---------|


Verse 1 (Step in front of a runaway train...)

E|-------------------------------------------|
B|--------------0--------------0-------------|
A|-----------0--------------0----------------|
D|--------4--------------4-------------------|
A|-----2--------------2-----------2----------|
B|--0--------------0-------------------------|


Chorus (It's so far, so far away...)

E|-----------------------------------------------------------|
B|--------------0-----------------------0--------------0-----|
A|--0-----0-----------0--------------0--------------0--------|
D|--7--7-----7-----7-----7--------4--------------4-----------|
A|--7--------------------------2--------------2-----------2--|
B|--0-----------------------0--------------0-----------------|


E|--------------0--------------------------------------------|
B|--------0-----------0-----------------0--------------0-----|
A|--0--0-----0-----0----0------------0--------------0--------|
D|--7-----------------------------4--------------4-----------|
A|--7--------------------------2--------------2-----------2--|
B|--0-----------------------0--------------0-----------------|

Verse 1 (Cold wind blowing through the skin...)

E|-------------------------------------------|
B|--------------0--------------0-------------|
A|-----------0--------------0----------------|
D|--------4--------------4-------------------|
A|-----2--------------2-----------2----------|
B|--0--------------0-------------------------|

Chorus (It's so far, so far away...)
[ Tab from: http://www.guitartabs.cc/tabs/j/jose_gonzalez/far_away_tab_ver_2.html ]
E|-----------------------------------------------------------|
B|--------------0-----------------------0--------------0-----|
A|--0-----0-----------0--------------0--------------0--------|
D|--7--7-----7-----7-----7--------4--------------4-----------|
A|--7--------------------------2--------------2-----------2--|
B|--0-----------------------0--------------0-----------------|


E|--------------0--------------------------------------------|
B|--------0-----------0-----------------0--------------0-----|
A|--0--0-----0-----0----0------------0--------------0--------|
D|--7-----------------------------4--------------4-----------|
A|--7--------------------------2--------------2-----------2--|
B|--0-----------------------0--------------0-----------------|

Interlude (Who are you trying to impress...) (Play chords freely)

E|-----------------------------------------------------------------------|
B|-----------------------------------------------------------------------|
A|----0----0----0----0----0----0----0----0----0----0--0----0---0---------|
D|----7----7----7----7----7----7----9----9----9----0--0----0---0---------|
A|----4----4----4----5----5----5----7----7----7----9--9----12--12--------|
B|----0----0----0----0----0----0----0----0----0----0--0----0---0---------|

E|-------------------------------------------|
B|--------------0--------------0-------------|
A|-----------0--------------0----------------|
D|--------4--------------4-------------------|
A|-----2--------------2-----------2----------|
B|--0--------------0-------------------------|


Outro (Step in front of a runaway train...)

E|-------------------------------------------|
B|--------------0--------------0-------------|
A|-----------0--------------0----------------|
D|--------4--------------4-------------------|
A|-----2--------------2-----------2----------|
B|--5--------------3-------------------------|

E|-------------------------------------------|
B|--------------0--------------0-------------|
A|-----------0--------------0----------------|
D|--------4--------------4-------------------|
A|-----2--------------2-----------2----------|
B|--0--------------0-------------------------|

Experiment and listen to the song to get the feel and the timings right
escpecially when you play the chords (like in the chorus and the interlude)

http://www.guitartabcreator.com
Comments