Jose Gonzalez - Down The Line Chords & Tabs

 

Down The Line Chords & Tabs

Jose Gonzalez Chords & Tabs

Version: 2 Type: Tab 0 ratings
1 star 2 stars 3 stars 4 stars 5 stars
comments

Down The Line Tab

   
Artist: José González
Song: Down The Line
Album: In Our Nature

Tuning: D A D G B E

Key:
^ down stroke
v up stroke
T continue the down stroke with a tap on the guitar body 


Main theme
      T       T       T       T
 ^  v ^ v ^ v ^ v ^ v ^ v ^ v ^ v
|---0-0-0-0-0-0-0-0-0-0-0-0-0-0-0-|--0--0-0-0-0-0-0-0-0-0-0-0-0-0-0-|
|---5-5-5-5-5-5-5-5-5-5-5-5-5-5-5-|--5--5-5-5-5-5-5-3-3-3-3-3-3-3-3-|
|-----0---0---0---0---0---0-0-0-0-|-----0---0---0---0---0---0-0-0-0-|
|-0---0-------0-------0-----0-0-0-|-0---0-------0-------0-----0-0-0-|
|-7-------------------------7-7-7-|-5-------------------------5-5-5-|
|---------------------------------|---------------------------------|

|---0-0-0-0-0-0-0-0-0-0-0-0-0-0-0-|---0-0-0-0-0-0-0-0-0-0-0-0-0-0-0-|
|---5-5-5-5-5-5-5-5-5-5-5-5-5-5-5-|---5-5-5-5-5-5-5-3-3-3-3-3-0-0-0-|
|-----0---0---0---0---0---0---0---|-----0---0---0---0---0---0-0-0-0-|
|-0---0-------0-------0-------0---|-0---0-------0-------0-----0-0-0-|
|-4-------------------------------|-3-------------------------0-0-0-|
|---------------------------------|---------------------------0-0-0-|
[ Tab from: http://www.guitartabs.cc/tabs/j/jose_gonzalez/down_the_line_tab_ver_2.html ]
Variation 1
|---7-7-7-7-7-7-7-7-7-7-7-7-7-7-7-|---7-7-7-7-7-7-7-7-7-7-7-7-7-7-7-|
|---5-5-5-5-5-5-5-5-5-5-5-5-5-5-5-|---5-5-5-5-5-5-5-5-5-5-5-5-5-5-5-|
|-----0---0---0---0---0---0-0-0-0-|-----0---0---0---0---0---0-0-0-0-|
|-0---0-------0-------0-----0-0-0-|-0---0-------0-------0-----0-0-0-|
|-7-------------------------7-7-7-|-5-------------------------5-5-5-|
|---------------------------------|---------------------------------|

|---7-7-7-7-7-7-7-7-7-7-7-7-7-7-7-|---7-7-7-7-7-7-7-5-5-5-5-5-0-0-0-|
|---5-5-5-5-5-5-5-5-5-5-5-5-5-5-5-|---5-5-5-5-5-5-5-5-5-5-5-5-0-0-0-|
|-----0---0---0---0---0---0---0---|-----0---0---0---0---0---0-0-0-0-|
|-0---0-------0-------0-------0---|-0---0-------0-------0-----0-0-0-|
|-4-------------------------------|-3-------------------------0-0-0-|
|---------------------------------|---------------------------0-0-0-|

Variation 2
|---------------------------------|---------------------------------|
|-----5-------5-------5-------5---|-----5-------5-------3-------3---|
|-----0---0---0---0---0---0---0---|-----0---0---0---0---0---0---0---|
|---------------------------------|---------------------------------|
|-7-------------------------------|-5-------------------------------|
|---------------------------------|---------------------------------|

|---------------------------------|---------------------0-0-x-0-0-0-|
|-----5-------5-------5-------5---|-----5-------5-------0-0-x-0-0-0-|
|-----0---0---0---0---0---0---0---|-----0---0---0---0---0-0-x-0-0-0-|
|---------------------------------|---------------------0-0-x-0-0-0-|
|-4-------------------------------|-3-------------------3-3-x-0-0-0-|
|---------------------------------|---------------------0-0-x-0-0-0-|

|---------------------0-0-0-0-0-0-|
|-----5-------5-------8-8-8-0-0-0-|
|-----0---0---0---0---0-0-0-0-0-0-|
|---------------------0-0-0-0-0-0-|
|-7-------------------------0-0-0-|
|---------------------------0-0-0-|
Comments