Jose Gonzalez - Down The Line Chords & Tabs

 

Down The Line Chords & Tabs

Jose Gonzalez Chords & Tabs

Version: 1 Type: Tab 0 ratings
1 star 2 stars 3 stars 4 stars 5 stars
comments

Down The Line Tab

Down the line by José González

Standard tuning

Verse

e|-----------------|-----------------|-----------------|-----------------|
B|-5-5-5-5-5-5-5-5-|-5-5-5-5-5-5-5-5-|-5-5-5-5-5-5-5-5-|-5-5-5-5-5-5-5-5-|
G|-----------------|-----------------|-----------------|-----------------|
D|-----------------|-----------------|-----------------|-----------------|
A|-7---------------|-----------7-7-0-|-5---------------|-----------5-5-0-|
E|-0---------------|-----------0-0-0-|-0---------------|-----------5-0-0-|

e|-----------------|-----------------|-----------------|-----------------|
B|-5-5-5-5-5-5-5-5-|-5-5-5-5-5-5-5-5-|-5-5-5-5-5-5-5-5-|-3-3-3-3-3-0-0-0-|
G|-----------------|-----------------|-----------------|-4-4-4-4-4-------|
D|-----------------|-----------------|-----------------|-----------------|
A|-4---------------|-----------4-4-0-|-3---------------|-----------0-0-0-|
E|-0---------------|-----------0-0-0-|-0---------------|-----------0-0-0-|


Chorus
[ Tab from: http://www.guitartabs.cc/tabs/j/jose_gonzalez/down_the_line_tab.html ]
e|-7-7-7-7-7-7-7-7-|-7-7-7-7-7-7-7-7-|-7-7-7-7-7-7-7-7-|-7-7-7-7-7-7-7-7-|
B|-5-5-5-5-5-5-5-5-|-5-5-5-5-5-5-5-5-|-5-5-5-5-5-5-5-5-|-5-5-5-5-5-5-5-5-|
G|-----------------|-----------------|-----------------|-----------------|
D|-----------------|-----------------|-----------------|-----------------|
A|-7---------------|-----------7-7-0-|-5---------------|-----------5-5-0-|
E|-0---------------|-----------0-0-0-|-0---------------|-----------5-0-0-|

e|-7-7-7-7-7-7-7-7-|-7-7-7-7-7-7-7-7-|-7-7-7-7-7-7-7-7-|-5-5-5-5-5------|
B|-5-5-5-5-5-5-5-5-|-5-5-5-5-5-5-5-5-|-5-5-5-5-5-5-5-5-|-5-5-5-5-5-0-0-0-|
G|-----------------|-----------------|-----------------|-----------------|
D|-----------------|-----------------|-----------------|-----------------|
A|-4---------------|-----------4-4-0-|-3---------------|-----------0-0-0-|
E|-0---------------|-----------0-0-0-|-0---------------|-----------0-0-0-|



Jose Gonzalez playing down the line live. 
http://www.youtube.com/watch?v=gqD4OkEo9UQ 

Tab by swede120
Comments