Jose Gonzalez - Deadweight On Velventeen Chords & Tabs

 

Deadweight On Velventeen Chords & Tabs

Jose Gonzalez Chords & Tabs

Version: 1 Type: Tab 0 ratings
1 star 2 stars 3 stars 4 stars 5 stars
comments

Deadweight On Velventeen Tab

   
Jose Gonzalez - Deadweight on Velventeen - Veneer
Tabbed By Dan Benton-Smith
email - dan.benton-smith@southessex-trust.nhs.uk
Tuning low to high D A D F# B e
Capo on 1st fret
This tab should be 100%, if you find any mistakes please email me. Enjoy!

----------------------------------------------------------|
----------------------------------------------------------|
----------------------------------------------------------|
--11---11---11---11---11---11---11---11-------------------|
9----9----9----9----9----9----9----9----------------------|
----------------------------------------------------------|x4

--0--------------0----------------------------------------|
--0-------0------0-------0--------------------------------|
----------0--------------0-------0------------------------|
--11---11---11---11---11---11---11---11-------------------|
9----9----9----9----9----9----9----9----------------------|
----------------------------------------------------------|

--0--------------0----------------------------------------|
--0-------0------0-------0--------------------------------|
----------0--------------0-------0------------------------|
--11---11---11---11---11---11---11---11-------------------|
9----9----9----9----9----9----9----9----------------------|
----------------------------------------------------------|

--0--------------0----------------------------------------|
--0-------0------0-------0--------------------------------|
----------0--------------0-------0------------------------|
--11---11---11---11---11---11---11---11-------------------|
9----9----9----9----9----9----9----9----------------------|
----------------------------------------------------------|

--0--------------0----0-----------------------------------|
--0-------0------0----0------------0----------------------|
----------0-----------------0------0----------------------|
--11---11---11---11---11---11---11---11-------------------|
9----9----9----9----9----9----9----9----------------------|
----------------------------------------------------------|


----------------------------------------------------------|
----------------------------------------------------------|
----------------------------------------------------------|
--11---11---11---11---11---11---11---11-------------------|
9----9----9----9----9----9----9----9----------------------|
----------------------------------------------------------|x4

---------------------------------------------------------|
-----0---------0---------0---------0---------------------|
-----0---------0---------0---------0---------------------|
--11---11---11---11---11---11---11---11------------------|
-----9----9----0---------9----9----9---------------------|
0-------------------9------------------------------------|

----------------------------------------------------------|
-----0----------------------------------------------------|
-----0----------------------------------------------------|
--11---11---11---11---11---11---11---11-------------------|
9----9----9----9----9----9----9----9----------------------|
----------------------------------------------------------|x4

--0--------------0----------------------------------------|
--0-------0------0-------0--------------------------------|
----------0--------------0-------0------------------------|
--11---11---11---11---11---11---11---11-------------------|
9----9----9----9----9----9----9----9----------------------|
----------------------------------------------------------|

--0--------------0----------------------------------------|
--0-------0------0-------0--------------------------------|
----------0--------------0-------0------------------------|
--11---11---11---11---11---11---11---11-------------------|
9----9----9----9----9----9----9----9----------------------|
----------------------------------------------------------|

--0--------------0----------------------------------------|
--0-------0------0-------0--------------------------------|
----------0--------------0-------0------------------------|
--11---11---11---11---11---11---11---11-------------------|
9----9----9----9----9----9----9----9----------------------|
----------------------------------------------------------|

--0--------------0----0-----------------------------------|
--0-------0------0----0------------0----------------------|
----------0-----------------0------0----------------------|
--11---11---11---11---11---11---11---11-------------------|
9----9----9----9----9----9----9----9----------------------|
----------------------------------------------------------|

------------------------------------------------------------|
---------------0--------------------------------------------|
---------------0--------------------------------------------|
--11---11---11---11---11---11---11---11---------------------|
9----9----9----9----9----9----9----9------------------------|
------------------------------------------------------------|x4

---------------------------------------------------------|
-----0---------0---------0---------0---------------------|
-----0---------0---------0---------0---------------------|
--11---11---11---11---11---11---11---11------------------|
-----9----9----0---------9----9----9---------------------|
0-------------------9------------------------------------|
[ Tab from: http://www.guitartabs.cc/tabs/j/jose_gonzalez/deadweight_on_velventeen_tab.html ]
----------------------------------------------------------|
-----0----------------------------------------------------|
-----0----------------------------------------------------|
--11---11---11---11---11---11---11---11-------------------|
9----9----9----9----9----9----9----9----------------------|
----------------------------------------------------------|

---------------------------------------------------------|
-----0---------0---------0---------0---------------------|
-----0---------0---------0---------0---------------------|
--11---11---11---11---11---11---11---11------------------|
-----9----9----0---------9----9----9---------------------|
0-------------------9------------------------------------|

----------------------------------------------------------|
-----0----------------------------------------------------|
-----0----------------------------------------------------|
--11---11---11---11---11---11---11---11-------------------|
9----9----9----9----9----9----9----9----------------------|
----------------------------------------------------------|

---------------------------------------------------------|
-----0---------0---------0---------0---------------------|
-----0---------0---------0---------0---------------------|
--11---11---11---11---11---11---11---11------------------|
-----9----9----0---------9----9----9---------------------|
0-------------------9------------------------------------|

----------------------------------------------------------|
-----0---------0---------0---------0----------------------|
-----0---------0---------0---------0----------------------|
--11---11---11---11---11---11---11---11-------------------|
9----9----9----9----9----9----9----9----------------------|
----------------------------------------------------------|

---------------------------------------------------------|
-----0---------0---------0---------0---------------------|
-----0---------0---------0---------0---------------------|
--11---11---11---11---11---11---11---11------------------|
-----9----9----0---------9----9----9---------------------|
0-------------------9------------------------------------|

----------------------------------------------------------|
-----0---------0---------0---------0----------------------|
-----0---------0---------0---------0----------------------|
--11---11---11---11---11---11---11---11-------------------|
9----9----9----9----9----9----9----9----------------------|
----------------------------------------------------------|

---------------------------------------------------------|
-----0---------0---------0---------0---------------------|
-----0---------0---------0---------0---------------------|
--11---11---11---11---11---11---11---11------------------|
-----9----9----0---------9----9----9---------------------|
0-------------------9------------------------------------|

----------------------------------------------------------|
-----0----------------------------------------------------|
-----0----------------------------------------------------|
--11---11---11---11---11---11---11---11-------------------|
9----9----9----9----9----9----9----9----------------------|
----------------------------------------------------------|


----------------------------------------------------------|
-------------------------0--------------------------------|
-------------------------0--------------------------------|
--11---11---11---11---11---11---11---11-------------------|
9----9----9----9----9----9----9----9----------------------|
----------------------------------------------------------|

----------------------------------------------------------|
-------------------------0--------------------------------|
-------------------------0--------------------------------|
--11---11---11---11---11---11---11---11-------------------|
9----9----9----9----9----9----9----9----------------------|
----------------------------------------------------------|

--0--------------0----------------------------------------|
--0-------0------0-------0--------------------------------|
----------0--------------0-------0------------------------|
--11---11---11---11---11---11---11---11-------------------|
9----9----9----9----9----9----9----9----------------------|
----------------------------------------------------------|

--0--------------0----------------------------------------|
--0-------0------0-------0--------------------------------|
----------0--------------0-------0------------------------|
--11---11---11---11---11---11---11---11-------------------|
9----9----9----9----9----9----9----9----------------------|
----------------------------------------------------------|

--0--------------0----------------------------------------|
--0-------0------0-------0--------------------------------|
----------0--------------0-------0------------------------|
--11---11---11---11---11---11---11---11-------------------|
9----9----9----9----9----9----9----9----------------------|
----------------------------------------------------------|

--0--------------0----0-----------------------------------|
--0-------0------0----0-----------------------------------|
----------0-----------------0-----------------------------|
--11---11---11---11---11---11-----------------------------|
9----9----9----9----9----9--------------------------------|
----------------------------------------------------------|
Comments