Jose Gonzalez - Cycling Trivialities Chords & Tabs

 

Cycling Trivialities Chords & Tabs

Jose Gonzalez Chords & Tabs

Version: 1 Type: Tab 0 ratings
1 star 2 stars 3 stars 4 stars 5 stars
comments

Cycling Trivialities Tab

   
Jose Gonzalez - Cycling Trivialities - In Our Nature 2007
Tabbed By Dan Benton-Smith 11/11/07
Tuning Low to High - D A D F# B e
Capo on 2nd fret
Really simple to play but a great tune!


Verse and Chorus

--------------------------------------------------|
------0-----------0-----------0-----------0-------|
----0-----0-----0-----0-----0-----0-----0-----0---|
--0-----0-----0-----0-----0-----0-----0-----0-----|
--------------------------------------------------|
2-----------2-----------2-----------4-------------|


--------------------------------------------------|
------2-----------2-----------2-----------2p0-----|
----0-----0-----0-----0-----0-----0-----0-----0---|
--0-----0-----0-----0-----0-----0-----0-----------|
--------------------------------------------------|
0-----------0-----------0-----------0-------------|x3


--------------------------------------------------|
------0-----------0-----------0-----------0-------|
----0-----0-----0-----0-----0-----0-----0-----0---|
--0-----0-----0-----0-----0-----0-----0-----0-----|
--------------------------------------------------|
2-----------2-----------2-----------4-------------|


------------------------------------0-------------|
------2-----------2-----------2-----------2p0-----|
----0-----0-----0-----0-----0-----0-----0-----0---|
--0-----0-----0-----0-----0-----0-----0-----------|
--------------------------------------------------|
0-----------0-----------0-------------------------|


Bridge

--------------------------------------------------|
------0-----------0-----------0-----------0-------|
----0-----0-----0-----0-----0-----0-----0-----0---|
--0-----0-----0-----0-----0-----0-----0-----0-----|
7-----------5-----------4-----------2-------------|
--------------------------------------------------|

[ Tab from: http://www.guitartabs.cc/tabs/j/jose_gonzalez/cycling_trivialities_tab.html ]
--------------------------------------------------|
------0-----------0-----------0-----------0-------|
----0-----0-----0-----0-----0-----0-----0-----0---|
--0-----0-----0-----0-----0-----0-----0-----0-----|
7-----------7-----------7-----------7-------------|
--------------------------------------------------|


--------------------------------------------------|
------0-----------0-----------0-----------0-------|
----0-----0-----0-----0-----0-----0-----0-----0---|
--0-----0-----0-----0-----0-----0-----0-----0-----|
5-----------4-----------2-----------0-------------|
--------------------------------------------------|


--------------------------------------------------|
------0-----------0-----------0-----------0-------|
----0-----0-----0-----0-----0-----0-----0-----0---|
--0-----0-----0-----0-----0-----0-----0-----0-----|
7-----------7-----------7-----------7-------------|
--------------------------------------------------|


--------------------------------------------------|
------0-----------0-----------0-----------0-------|
----0-----0-----0-----0-----0-----0-----0-----0---|
--0-----0-----0-----0-----0-----0-----0-----0-----|
5-----------4-----------2-----------0-------------|
--------------------------------------------------|


--------------------------------------------------|
------0-----------0-----------0-----------0-------|
----0-----0-----0-----0-----0-----0-----0-----0---|
--0-----0-----0-----0-----0-----0-----0-----0-----|
7-----------7-----------7-----------7-------------|
--------------------------------------------------|


--------------------------------------------------|
------0-----------0-----------0-----0-----0-------|
----0-----0-----0-----0-----0-----0-----0-----0---|
--0-----0-----0-----0-----0-----0-----0-----0-----|
7-----------7-----------7-------------------------|
--------------------------------------------------|

Enjoy!
Comments