Jose Gonzalez - Crosses Chords & Tabs

 

Crosses Chords & Tabs

Jose Gonzalez Chords & Tabs

Version: 4 Type: Tab 0 ratings
1 star 2 stars 3 stars 4 stars 5 stars
comments

Crosses Tab

   
-----------------------------------------------------------------------------
05. Crosses
-----------------------------------------------------------------------------
Tabbed by: Arto Schürch
Email:     arto_schuerch@gmx.ch


Tuning: D,A,D,F#,B,e


Intro (once these four lines),
Verse 1 (repeat 1st part 3x then 2nd part (*=9) and "We'll cast some..."),
Verse 2 & Verse 3 are basically the same but with slight variations:

   1   &   2   &   3   &   4   &    1   &   2   &   3   &   4   &
e |-------(0)----------------------|-------(0)----------------------|
B |0-------0-------0-------0-------|0-------0-------0-------0-------|
F#|8-------8-------8-------7-------|5-------5-------5-------5-------|
D |----0-------0---------------0---|----0-------0---------------0---|
A |--------------------------------|--------------------------------|
D |9-------------------7-----------|5-------------------5-----------|

   1   &   2   &   3   &   4   &    1   &   2   &   3   &   4   &
e |-------(0)----------------------|-------(0)----------------------|
B |0-------0-------0-------0-------|0-------0-------0-------0-------|
F#|5-------5-------5-------7-------|8-------10------12------10------|   (3x)
D |----0-------0---------------0---|----0-------0-------0-------0---|
A |--------------------------------|--------------------------------|
D |5-------------------7-----------|9-------------------------------|

   1   &   2   &   3   &   4   &    1   &   2   &   3   &   4   &
e |--------------------------------|--------------------------------|
B |0-------0-------0-------0-------|0-------0-------0-------0-------|
F#|8-------8-------8-------7-------|5-------5-------5-------5-------|
D |----0-------0---------------0---|----0-------0---------------0---|
A |--------------------------------|--------------------------------|
D |--------9-----------7-----------|5-------------------5-----------|

   1   &   2   &   3   &   4   &    1   &   2   &   3   &   4   &
e |--------------------------------|--------------------------------|
B |0-------0-------0-------0-------|0-------0-------0-------0-------|
F#|5-------5-------0-------3-------|0-------0-------0-------0-------|
D |----0-------0---------------0---|----0-------0---------------0---|
A |--------------------------------|--------------------------------|
D |5-------------------5-----------|9-------------------7*----------|


...2nd time "We'll cast some light..."

   1   &   2   &   3   &   4   &    1   &   2   &   3   &   4   &
e |0-------0-------0-------0-------|0-------0-------0---------------|
B |0-------0-------0-------0-------|0-------0-------0-------0-------|
F#|----0-------0-------0-------0---|----0-------0-----------3-------|
D |--------------------------------|----------------------------0---|
A |--------------------------------|--------------------------------|
D |2-------------------------------|--------------------4-----------|

   1   &   2   &   3   &   4   &    1   &   2   &   3   &   4   &
e |--------------------------------|--------------------------------|
B |0-------0-------0-------0-------|0-------0-------0---------------|
F#|5-------5-------5-------5-------|5-------5-------5-------0-------|
D |----0-------0-------0-------0---|----0-------0-----------0---0---|
A |--------------------------------|--------------------------------|
D |5-------------------------------|--------------------0-----------|


...Verse 2, 2nd time "we'll cast some light..." into B-part:

   1   &   2   &   3   &   4   &    1   &   2   &   3   &   4   &
e |0-------0-------0-------0-------|0-------0-------0-------0-------|
B |0-------0-------0-------0-------|0-------0-------0-------0-------|
F#|----0-------0-------0-------0---|----0-------0---------------0---|
D |--------------------------------|--------------------------------|
A |--------------------------------|--------------------------------|
D |2-------------------------------|--------------------4-----------|
[ Tab from: http://www.guitartabs.cc/tabs/j/jose_gonzalez/crosses_tab_ver_4.html ]
   1   &   2   &   3   &   4   &    1   &   2   &   3   &   4   &
e |--------------------------------|--------------------------------|
B |0-------0-------0-------0-------|0-------0-------0-------0-------|
F#|5-------5-------5-------5-------|5-------5-------5-------0-------|
D |----0-------0-------0-------0---|----0-------0-------5-----5/9---|
A |--------------------------------|--------------------------------|
D |5-------------------------------|--------------------------------|


B-part:

   1   &   2   &   3   &   4   &    1   &   2   &   3   &   4   &
e |------------0---0-------0-------|0-------0-------0-------0-------|
B |--------0-------0-------0-------|0-------0-------0-------0-------|
F#|----8---------------8-------8---|----5-------5---------------5---|
D |9---------------9---------------|7-------------------7-----------|
A |--------------------------------|--------------------------------|
D |--------------------------------|--------------------------------|

   1   &   2   &   3   &   4   &    1   &   2   &   3   &   4   &
e |0-------0-------0-------0-------|0-------0-------0-------0-------|
B |0-------0-------0-------0-------|0-------0-------0-------0-------|
F#|----8-------8---------------8---|----5-------5---------------5---|
D |9-------------------9-----------|7-------------------7-----------|
A |--------------------------------|--------------------------------|
D |--------------------------------|--------------------------------|

"crosses all over..."

   1   &   2   &   3   &   4   &    1   &   2   &   3   &   4   &
e |0-------0-------0-------0-------|0-------0-------0-------0-------|
B |0-------0-------0-------0-------|0-------0-------0-------0-------|
F#|----8-------8---------------8---|----5-------5---------------5---|
D |9-------------------9-----------|7-------------------7-----------|
A |--------------------------------|--------------------------------|
D |--------------------------------|--------------------------------|

   1   &   2   &   3   &   4   &    1   &   2   &   3   &   4   &
e |0-------0-------0-------0-------|0-------0-------0-------0-------|
B |0-------0-------0-------0-------|0-------0-------0-------0-------|
F#|----3-------3---------------3---|----0-------0---------------0---|   3x
D |4-------------------4-----------|2-------------------2-----------|
A |--------------------------------|--------------------------------|
D |--------------------------------|--------------------------------|

last time "crosses all over..."

   1   &   2   &   3   &   4   &    1   &   2   &   3   &   4   &
e |0-------0-------0-------0-------|0-------0-------0-------0-------|
B |0-------0-------0-------0-------|0-------0-------0-------0-------|
F#|----8-------8---------------8---|----5-------5---------------5---|
D |9-------------------9-----------|7-------------------7-----------|
A |--------------------------------|--------------------------------|
D |--------------------------------|--------------------------------|

   1   &   2   &   3   &   4   &    1   &   2   &   3   &   4   &
e |0-------0-------0-------0-------|0-------0-------0---0-----------|
B |0-------0-------0-------0-------|0-------0-------0---0---0-------|
F#|----8-------8---------------8---|----8-------8-----------0-------|
D |9-------------------9-----------|9---------------9---9-------0---|
A |--------------------------------|--------------------------------|
D |--------------------------------|------------------------7-------|



Verse 3, last time "We'll cast some light..."

   1   &   2   &   3   &   4   &    1   &   2   &   3   &   4   &
e |0-------0-------0-------0-------|0-------0-------0---------------|----
B |0-------0-------0-------0-------|0-------0-------0-------0-------|0~~~
F#|----0-------0-------0-------0---|----0-------0-----------3-------|5~~~
D |--------------------------------|----------------------------0---|0~~~
A |--------------------------------|--------------------------------|----
D |2-------------------------------|--------------------4-----------|5~~~

Comments