Jose Gonzalez - Crosses Chords & Tabs

 

Crosses Chords & Tabs

Jose Gonzalez Chords & Tabs

Version: 2 Type: Tab 0 ratings
1 star 2 stars 3 stars 4 stars 5 stars
comments

Crosses Tab

-------------------------------------------------------------------------------
			    crosses - jose gonzalez
-------------------------------------------------------------------------------
Tabbed by: Barry Mc Carthy
Email:you tell me yours first.......

Tuning:standard
listen to the song a few times and play along eventually youll get the jist. if
u cant then ur crap and my tab writing capabilities have nothing to do with it
as im feckin marvellous.

e|------------------------------------------------------------------------------|
B|------------------------------------------------------------------------------|
G|--7--7--7----6----4--4--4--4----4--4---4----6----7---9--11---(a few times)----|
D|------------------------------------------------------------------------------|
A|------------------------------------------------------------------------------|
E|--7----7---5---5--3----3--3--3--3----3----s5--5--7---7---7--------------------|

at the end of the chorus
e|----------------------------------------------------------------------------------|
B|----------------------------------------------------------------------------------|
G|--7s--4--4----4-------------------------------------------------------------------|
D|----------------------------------------------------------------------------------|
A|----------------------------------------------------------------------------------|
E|--7---0----0--3-------------------------------------------------------------------|
[ Tab from: http://www.guitartabs.cc/tabs/j/jose_gonzalez/crosses_tab_ver_2.html ]
mid thingy 1
e|----0------0------0-----0------0------0------0-------------------------------|
B|----0------0------0-----0------0------0------0-------------------------------|
G|-----------------------------------------------------------------------------|
D|--9---9--9--9s--7--7--7--7s--9---9--9--9s--7--7------------------------------|  X2
A|-----------------------------------------------------------------------------|
E|-----------------------------------------------------------------------------|


mid thingy 2..
e|-----0------0------0-----0-----0-----0-----0----------------------------------|
B|-----0------0------0-----0-----0-----0-----0----------------------------------|
G|------------------------------------------------------------------------------|
D|--9---9--9---9s--7--7--7--7s-4--4s-4--4s-2--2---------------------------------| X3
A|------------------------------------------------------------------------------|
E|------------------------------------------------------------------------------|
  "crosses....                .....so long.....             ....ago


mid thingy 3
e|----0------0------0-----0------0------0------0-------------------------------|
B|----0------0------0-----0------0------0------0-------------------------------|
G|-----------------------------------------------------------------------------|
D|--9---9--9--9s--7--7--7--7s--9---9--9--9---9--9--------back into song--------|
A|-----------------------------------------------------------------------------|
E|-----------------------------------------------------------------------------|


tada.....
Comments