Jose Feliciano - Yesterday Chords & Tabs

 

Yesterday Chords & Tabs

Jose Feliciano Chords & Tabs

Version: 1 Type: Tab 0 ratings
1 star 2 stars 3 stars 4 stars 5 stars
comments

Yesterday Tab

   
#----------------------------------PLEASE NOTE---------------------------------#
#This file is the author's own work and represents their interpretation of the #
#song. You may only use this file for private study, scholarship, or research. #
#------------------------------------------------------------------------------#

Date: 06.03.2005
Tabbed by Peter Tuyp(peter.tuyp@wxs.nl)

subject: Jose Feliciano - Yesterday

Chords:

a=10
b=11
c=12

Csus2	x35533
Am7	x02010
Bm7	224232
E	022100	476454
Am	x02210	577555	xx79a8
F	133211	x87565	x8aaa8
G	355433	7a9787
c	x35553	xaa988
Fdim	x2313x  x8x79a
D	x00232	x57775
Esus4	022200	x20200
Dm7	x53535
G7	353433
Dm	xcccaa
Cmaj7   x32000

Ap = appregio


Verse 1:
Csus2 Am7                     Bm7              E                         Am
|------------------------------------2h4---4---4/5---5/7---7b8r7---8p7p5-7-5-5-5--------------|
|-3-------------------------------5-----------------------------------------------------------|
|-5---5---5-----------------------------------------------------------------------------------|
|-5-------------------------------------------------------------------------------------------|
|-3-------------------------------------------------------------------------------------------|
|---------------------------------------------------------------------------------------------|
  Ap

  F       G           c                           Fdim Am     D                F       
 Am7
|-3/5---5-3------------------------------------------------0---------------------------0---0--|
|-------------6-5-3---6-----5---5-------------------3--1-------3---------------1-------1---1--|
|-5-----5-4---4-4-4---4/5---5---5-------------------1--2-----------2h4p2-1-2---2-------2---0--|
|---------------------------------------------------3--2------0----------------3-------2---2--|
|---------------------------------------------------2--0-----------------------3--------------|
|---------------------------------------------------------------------------------------------|
                                                       Ap                      Ap        
 Ap

Verse 2:
Csus2 Am7                     Bm7              E                         Am        D/f#
|-----0---0--------------------------2h4---4---4/5---5/7---7b8r7---8p7p5-7-5-5-5--------------|
|-3---1---1-----------------------5------------------------------------------------3----------|
|-5---0---0-------------------2----------------------------------------------------2----------|
|-5---2---2-------------------0----------------------------------------------------4----------|
|-3-------------------------------------------------------------------------------------------|
|---------------------------------------------------------------------------------------------|
  Ap                                                                               Ap

  Dm7         G7           c                     Fdim  Am          D                F   
Am7
|--------5-5--3-------------------------------------------------------------------------0--0--|
|--------3-3--3-----6-5-3--6-----5---5--------------3--1--------5---3---------------1---1--1--|
|--------5-5--4-----4-4-4--4/5---5---5--------------1--2------------------2h4p2-1-2-2---2--0--|
|-3h5-3--3-3--3-------------------------------------3--2-----------0----------------3---2--2--|
|------------------------------------------------2-----0----------------------------3---------|
|---------------------------------------------------------------------------------------------|
                                                    Ap Ap                           Ap   
 Ap

Chorus:
  Esus4     E          Am   G    Am           G    Dm   G          Am7       c
|-0---------0----------5----7----8------------7------------3---3h5-0--------------------------|
|-0---------0------5---5----8----10---12--10--8----10------3---3---1---------5--8--6--5-------|
|-2---------1----------5----7----9------------0----10------4---4---0---------------------7--5-|
|-2---------2----------7----9----7------------9----12--------------2--------------------------|
|----------------------7----10----------------10---12-----------------------------------------|
|-------------------------------------------------------3-------------------------------------|
            Ap              Ap   Ap           Ap
[ Tab from: http://www.guitartabs.cc/tabs/j/jose_feliciano/yesterday_tab.html ]
  Esus4     E          Am   G    Am             G       Dm   G          c
|-0---------0----------5----7----8----------------------10--------7-----8---------------------|
|-0---------0----------5----8----10---12---10---12------10---8----8-----8-------8---6h8p6-----|
|-2---------1----------5----7----9----10---10---10------10---7----7-----9-------------------9-|
|-2---------2----------7----9----7----------------------12---9----9-----10--------------------|
|----------------------7----10--------------------------12---10---10----10--------------------|
|---------------------------------------------------------------------------------------------|
  Ap        Ap                                                          Ap

Verse 3:
  Csus2                               Bm7        E7                    Am
|--------------------------------------------2---4---5/7---7-------8---5h7-5---5--------------|
|-3-----------------------------------0---5---------------------------------------------------|
|-5---5---5---------------------------2-------------------------------------------------------|
|-5-------------------------------------------------------------------------------------------|
|-3-------------------------------------------------------------------------------------------|
|---------------------------------------------------------------------------------------------|
  Ap

  F            G               c                   Fdim    Am     D                F    
Am7
|-8--------8---7/5--5--5----5--5/3--3--3------------------------------------------------0--0--|
|-8h10-----10--8/6--6--5h6--6--6/5--5--3h5---------------------5//7-7--------------1-------1--|
|---------------------------------------------9----7h9p7---5----5/7-7----2h4p2-1-2-2-------0--|
|---------------------------------------------9h10-9-----9-7-----------------------3-------2--|
|----------------------------------------------------------------------------------3----------|
|---------------------------------------------------------------------------------------------|
                                                                                   Ap    
 Ap

Chorus:
  Esus4       E            Am G  Am        G       Dm     G             Cmaj7           Esus4
|-0------------0--------0--5--7--8-----7-5-7-------5h7p5--3--------3h5----------0---------0---|
|----------0---------0-----5--8--10-------------------------------------------0---0-------0---|
|-2-----2---------1--------5--7--9---------------4--------------0-----------0-------0-----2---|
|-2--2---------------------7--9--7------------0-----------------0---------2-----------2---0---|
|-2----------------------------------------------------------2----------3-----------------2---|
|-------------0-------------------------------------------3-----------------------------3-----|
                           Ap Ap Ap                                                      
Ap

  Esus4       E          Am G    Am         G     Dm   G                  c
|-0-----------0-------0--5----7---8---------------10--------------3---7---8-------------------|
|----------0--------0----5----8---10----12--10----12---10h12p10---0---8---8-----8-6h8p6-------|
|-------2--------1-------5----7---9---------------10---10-------------7---9--------------9----|
|-2--2------------------------9--7----------------10------------------9---10------------------|
|-2-------------------------10--------------------12------------------10--10--9---------------|
|-------------0---------------------------------10---------------3----------------------------|
                              Ap  Ap              Ap              Ap  Ap  Ap

Verse 4:
Csus2 Am7                             Bm7          E7                        Am
|--------------------------------------------2--4--4/5--5/7--7/10----8-7h8p7-5h7p5-5--4-5--5--|
|-3-----------------------------------0---5---------------------------------------------------|
|-5---5---5---------------------------2-------------------------------------------------------|
|-5-------------------------------------------------------------------------------------------|
|-3-------------------------------------------------------------------------------------------|
|---------------------------------------------------------------------------------------------|

  F       G           c                Fdim    Am              D             F    Am Am7
|-5-5-5---3--------------------------------1-------0-------0----------------------0--0--------|
|-------------6-5--3--6----5--5----5-----3---3-------3-------3---------------1-------1--------|
|-5-5-5---4---4-4--4--4/5--5--5----5-------------2-----------------2h4p2-1-2-2-------0--------|
|----------------------------------5-----------------------------------------3-------2--------|
|----------------------------------3---2-------0---------0-------------------3----------------|
|------------------------------------------------------3-------2------------------------------|
                                                                             Ap      Ap

Ending:
  Am  Am7 D              F    Am Am7    Am  Am7 D          F    Am
|------0----------------------0--0-----------0------------------------------------------------|
|-1-------3--------------1----1--1------1-------3----------1----------------------------------|
|-2-------2---2h4p2-1-2--2-------0------2-----------2-1-2--2----------------------------------|
|-2-------0--------------3-------2------2-----------------------------------------------------|
|-0----------------------3--------------0-----------------------------------------------------|
|--------------------------------------------------------------1-0----------------------------|
Comments