Joplin Scott - The Entertainer Chords & Tabs

 

The Entertainer Chords & Tabs

Joplin Scott Chords & Tabs

Version: 1 Type: Tab 0 ratings
1 star 2 stars 3 stars 4 stars 5 stars
comments

The Entertainer Tab

The Entertainer


|----------------------------------------------0--------0-------------------
|--------------1-----1-----1----------1--3--4-----1--3-----0--3--1----------
|---------------------------------------------------------------------------
|-----0--1--2-----2-----2---------------------------------------------------
|---------------------------------------------------------------------------
|---------------------------------------------------------------------------

----------------------------------------------------0-----------------------
--------------1-----1-----1----------------------1-----3--1-----3-----------
-------------------------------------2--0-----2--------------2--------------
-----0--1--2-----2-----2-------------------4--------------------------------
----------------------------------------------------------------------------
----------------------------------------------------------------------------

----------------------------------------------0--------0--------------------
--------------1-----1-----1----------1--3--4-----1--3-----0--3--1-----------
----------------------------------------------------------------------------
-----0--1--2-----2-----2----------------------------------------------------
----------------------------------------------------------------------------
----------------------------------------------------------------------------

-------------0--------0------------0--------0------------0--------0---------|
-----1--3-------1--3-----1--3--1------1--3-----1--3--1------1--3-----0--3--1|
----------------------------------------------------------------------------|
----------------------------------------------------------------------------|
----------------------------------------------------------------------------|
----------------------------------------------------------------------------|
Repeat once^

[ Tab from: http://www.guitartabs.cc/tabs/j/joplin_scott/the_entertainer_tab.html ]
|----------------------------------------------------0--------------------0----------
|-------------------------------------------------------1--------0--1--3-----3--1--3-
|--------------0--2--0------------0--2--0------------------0--2----------------------
|-----2--3--4------------2--3--4-----------------------------------------------------
|------------------------------------------------------------------------------------
|------------------------------------------------------------------------------------

-------------------------------------------------------------------------------------
-----------------------------------------------------------------0--0---0------------
-----0--------0--2--0--------0--2--0-----------0--2--0--0--2--3------------2--------0
--------2--3-----------2--3-----------2--3--4---------------------------------4--0---
-------------------------------------------------------------------------------------
-------------------------------------------------------------------------------------

-------------------------------------------0--------------------0--------------------
----------------------------------------------1--------0--1--3-----3--1--3--1--------
---------------0--2--0-----------0--2--0---------0--2--------------------------------
-----2--3--4-----------2--3--4-------------------------------------------------------
-------------------------------------------------------------------------------------
-------------------------------------------------------------------------------------

----------------------------------------0--3---0------------------0------------------|
---------------1-----1-----1---------1------------1------------1-----3--1------------|
-----0-----0------2-----2-----2---0------------------0------2------------------------|
--------4----------------------------------------------------------------------------|
-------------------------------------------------------------------------------------|
-------------------------------------------------------------------------------------|


I kinda cramed all of it together so it may be confusing but if you listen to the song
you should get it.
Comments