Joplin Scott - The Entertainer Chords & Tabs

 

The Entertainer Chords & Tabs

Joplin Scott Chords & Tabs

Version: 1 Type: Chords 0 ratings
1 star 2 stars 3 stars 4 stars 5 stars
comments

The Entertainer Chords

Song: The Entertainer
By: S. Joplin
Tabbed by: The Masta

This is my first tab, and it's pretty damn accurate.  You should
probably download the song so you can get the beat right.

e|10-12-8-5-7-3----0------------------------------|
B|---------------3---1---0------------------------|
G|---------------------2---0--------------------0-|
D|----------------------------0-2-----------------|
A|--------------------------------3-0-2-0---------|
E|----------------------------------------4-3-----|

e|-----------------------0-----0---------|
B|------1---1---1--1-3-4---1-3---0-3-1---|
G|---------------------------------------|
D|0-1-2---2---2--------------------------|
A|---------------------------------------|
E|---------------------------------------|

e|---------------------------0-----------|
B|------1---1---1----------1---3-1---3---|
G|-----------------2-0---2---------2-----|
D|0-1-2---2---2--------4-----------------|
A|---------------------------------------|
E|---------------------------------------|

e|-----------------------0-----0---------|
B|------1---1---1--1-3-4---1-3---0-3-1---|
G|---------------------------------------|
D|0-1-2---2---2--------------------------|
A|---------------------------------------|
E|---------------------------------------|

e|----0-----0-------0-----0-------0-----0---------|
B|1-3---1-3---1-3-1---1-3---1-3-1---1-3---0-3-1---|
G|------------------------------------------------|
D|------------------------------------------------|
A|------------------------------------------------|
E|------------------------------------------------|

e|-----------------------0-----0---------|
B|------1---1---1--1-3-4---1-3---0-3-1---|
G|---------------------------------------|
D|0-1-2---2---2--------------------------|
A|---------------------------------------|
E|---------------------------------------|

e|---------------------------0-----------|
B|------1---1---1----------1---3-1---3---|
G|-----------------2-0---2---------2-----|
D|0-1-2---2---2--------4-----------------|
A|---------------------------------------|
E|---------------------------------------|

e|-----------------------0-----0---------|
B|------1---1---1--1-3-4---1-3---0-3-1---|
G|---------------------------------------|
D|0-1-2---2---2--------------------------|
A|---------------------------------------|
E|---------------------------------------|

e|----0-----0-------0-----0-------0-----0---------|
B|1-3---1-3---1-3-1---1-3---1-3-1---1-3---0-3-1---|
G|------------------------------------------------|
D|------------------------------------------------|
A|------------------------------------------------|
E|------------------------------------------------|

e|------------------------0-------------0---------0-1-3-5-3-0-1-|
B|--------------------------1-----0-1-3---3-1-3-----------------|
G|------0-2-0-------0-2-0-----0-2---------------0---------------|
D|2-3-4-------2-3-4---------------------------------------------|
A|--------------------------------------------------------------|
E|--------------------------------------------------------------|

e|3-5-3-0-1-2-3-5-3-3-5-6-7-7-7-5-2---3---|
B|----------------------------------3-----|
G|----------------------------------------|
D|----------------------------------------|
A|----------------------------------------|
E|----------------------------------------|

e|------------0-1-2-3-5-3-0-------------0-----------|
B|--------------------------1-----0-1-3---3-1-3-1---|
G|------0-2-0-----------------0-2-------------------|
D|2-3-4---------------------------------------------|
A|--------------------------------------------------|
E|--------------------------------------------------|

e|----------------------0-3-0---------0-------|
B|------1---1---1-----1-------1-----1---3-1---|
G|0---0---2---2---2-0-----------0-2-----------|
D|--4-----------------------------------------|
A|--------------------------------------------|
E|--------------------------------------------|

e|------------------------0-------------0---------0-1-3-5-3-0-1-|
B|--------------------------1-----0-1-3---3-1-3-----------------|
G|------0-2-0-------0-2-0-----0-2---------------0---------------|
D|2-3-4-------2-3-4---------------------------------------------|
A|--------------------------------------------------------------|
E|--------------------------------------------------------------|

e|3-5-3-0-1-2-3-5-3-3-5-6-7-7-7-5-2---3---|
B|----------------------------------3-----|
G|----------------------------------------|
D|----------------------------------------|
A|----------------------------------------|
E|----------------------------------------|

e|------------0-1-2-3-5-3-0-------------0-----------|
B|--------------------------1-----0-1-3---3-1-3-1---|
G|------0-2-0-----------------0-2-------------------|
D|2-3-4---------------------------------------------|
A|--------------------------------------------------|
E|--------------------------------------------------|

e|----------------------0-3-0---------0-------|
B|------1---1---1-----1-------1-----1---3-1---|
G|0---0---2---2---2-0-----------0-2-----------|
D|--4-----------------------------------------|
A|--------------------------------------------|
E|--------------------------------------------|
[ Tab from: http://www.guitartabs.cc/tabs/j/joplin_scott/the_entertainer_crd.html ]
e|-----------------------0-----0---------|
B|------1---1---1--1-3-4---1-3---0-3-1---|
G|---------------------------------------|
D|0-1-2---2---2--------------------------|
A|---------------------------------------|
E|---------------------------------------|

e|---------------------------0-----------|
B|------1---1---1----------1---3-1---3---|
G|-----------------2-0---2---------2-----|
D|0-1-2---2---2--------4-----------------|
A|---------------------------------------|
E|---------------------------------------|

e|-----------------------0-----0---------|
B|------1---1---1--1-3-4---1-3---0-3-1---|
G|---------------------------------------|
D|0-1-2---2---2--------------------------|
A|---------------------------------------|
E|---------------------------------------|

e|----0-----0-------0-----0-------0-----0----------|
B|1-3---1-3---1-3-1---1-3---1-3-1---1-3---0-3-1--8-|
G|-------------------------------------------------|
D|-------------------------------------------------|
A|-------------------------------------------------|
E|-------------------------------------------------|

e|---------------------1-0-1--5-6-----------|
B|-------1-3-------1-3----------------------|
G|2-1-2------3-2-3----------------0---0-2-3-|
D|----------------------------------4-------|
A|------------------------------------------|
E|------------------------------------------|

e|--3---3------1--0-4-7-12-10-7-8-5-6---|
B|3---3---3-1---------------------------|
G|--------------------------------------|
D|--------------------------------------|
A|--------------------------------------|
E|--------------------------------------|

e|5-4-5--8-10-----------1-0-1--5-6-----------|
B|------------------1-3----------------------|
G|------------3-2-3----------------0---0-2-3-|
D|-----------------------------------4-------|
A|-------------------------------------------|
E|-------------------------------------------|

e|--3---3------1-1-5-8-3-----0-1-------0-1-3-|
B|3---3---3-1------------1-3-----0-1-3-------|
G|-------------------------------------------|
D|-------------------------------------------|
A|-------------------------------------------|
E|-------------------------------------------|

e|---------------------1-0-1--5-6-----------|
B|-------1-3-------1-3----------------------|
G|2-1-2------3-2-3----------------0---0-2-3-|
D|----------------------------------4-------|
A|------------------------------------------|
E|------------------------------------------|

e|--3---3------1--0-4-7-12-10-7-8-5-6---|
B|3---3---3-1---------------------------|
G|--------------------------------------|
D|--------------------------------------|
A|--------------------------------------|
E|--------------------------------------|

e|5-4-5--8-10-----------1-0-1--5-6-----------|
B|------------------1-3----------------------|
G|------------3-2-3----------------0---0-2-3-|
D|-----------------------------------4-------|
A|-------------------------------------------|
E|-------------------------------------------|

e|--3---3------1-1-5-8-3-----0-1------|
B|3---3---3-1------------1-3----------|
G|------------------------------------|
D|--------------------------------3---|
A|------------------------------------|
E|------------------------------------|

e|----------------0-3-0---------0------8---|
B|1---1---1-----1-------1-----1---3-1------|
G|--2---2---2-0-----------0-2--------------|
D|-----------------------------------------|
A|-----------------------------------------|
E|-----------------------------------------|

e|--------------------------------------0-----0-----|
B|-------------3---1-3-1--------------1---1-3---3-1-|
G|-----------2---2-------2--------------------------|
D|3-2-3-2-3----------------5-4-5-4-5----------------|
A|--------------------------------------------------|
E|--------------------------------------------------|

e|-------------5---3-5-3-1-------8-5-3---------|
B|3-2-3-2-3--6---6---------1-1-1---------------|
G|-------------------------------------0-0-0-0-|
D|---------------------------------------------|
A|---------------------------------------------|
E|---------------------------------------------|

e|--------------------------------------0-----0-----|
B|-------------3---1-3-1--------------1---1-3---3-1-|
G|-----------2---2-------2--------------------------|
D|3-2-3-2-3----------------5-4-5-4-5----------------|
A|--------------------------------------------------|
E|--------------------------------------------------|

e|------3-1---------5-8-3-0-----0-------------|
B|----------1-5-4-5---------1-1---3-1---------|
G|2-1-2-------------------------------0-0-0-0-|
D|--------------------------------------------|
A|--------------------------------------------|
E|--------------------------------------------|

e|-------------5---3-5-3-1-------8-5-3---------|
B|3-2-3-2-3--6---6---------1-1-1---------------|
G|-------------------------------------0-0-0-0-|
D|---------------------------------------------|
A|---------------------------------------------|
E|---------------------------------------------|

e|--------------------------------------0-----0-----|
B|-------------3---1-3-1--------------1---1-3---3-1-|
G|-----------2---2-------2--------------------------|
D|3-2-3-2-3----------------5-4-5-4-5----------------|
A|--------------------------------------------------|
E|--------------------------------------------------|

e|------3-1---------5-8-3-0-----0------8-|
B|----------1-5-4-5---------1-1---3-1----|
G|2-1-2----------------------------------|
D|---------------------------------------|
A|---------------------------------------|
E|---------------------------------------|
Comments