Joplin Janis - Piece Of My Heart Chords & Tabs

 

Piece Of My Heart Chords & Tabs

Joplin Janis Chords & Tabs

Version: 1 Type: Bass Tab 0 ratings
1 star 2 stars 3 stars 4 stars 5 stars
comments

Piece Of My Heart Bass Tab

Piece Of My Heart - Janis Joplin

r=rest

  intro
G|-----------------------------------------5------------------------------7-7------------------
D|-----------------------------------4-5-45-5-56669-999--9-9------------57-7-7-------------5-5-
A|9999999999999999-------------------------------------79-9---55555r-055-----------------------
E|----------------55555555-7r7r-7r89--------------------------------------------7-777-777-7-7-7

"now come on come on come on"
-------------------------------|
-----------5-------------------|
------------7------------------|
-7-777-7-57--777777777777777777|

  verse
G|----------------------------------------------------------------------------|
D|------7--7r-9--9r-7--7r-------7--7r-----------------------------------------|
A|7--7r-------------------7--7r-----------------------------------------------|
E|------------------------------------57--7r-5--5r-0--0r-05--5r-57--7r-7r7r-7-|
[ Tab from: http://www.guitartabs.cc/tabs/j/joplin_janis/piece_of_my_heart_btab.html ]
  "each time I tell myself.."                                    "won't you just come on..."
G|----------------------------------------77777777--------------------------------------------
D|---------------------9------9-9-------45----------------------------------------999999999999
A|-------------------99-9------9-9----45-----------------------7899-----------7899------------
E|99-999-999-999997-9----7-910----10--------------7977777777777----77777777777----------------

      "take it!"
------|
7/97/9|
------|
------|

I don't have the chorus transcribed but the root notes are:
  chorus riff (x2)         chorus outro               "if it makes you feel good"
G|------------------------|---------------------------|----------|
D|------7--7--9--9--9--8--|------7--7--9--9--9--8--7--|----------|
A|7--7-------------9------|7--7-------------9---------|--5-6-7---|
E|------------------------|---------------------------|5---------|

  the root notes to the solo are:
G|---------------|
D|-----7----9----|
A|9--------------|
E|---------------|


Comments