Jones Norah - Shoot The Moon Chords & Tabs

 

Shoot The Moon Chords & Tabs

Jones Norah Chords & Tabs

Version: 1 Type: Tab 1 rating
1 star 2 stars 3 stars 4 stars 5 stars
comments

Shoot The Moon Tab

Song: Shoot the Moon
Artist: Norah Jones
Album: Come Away With Me
Transcribed by: Lucy Clarke


This is a very simple and very easy song to play. The pitch is perfect,
try playing along to the actual track and you'll see.


Intro:

e--------------------------------------------------------
B--1-----1-----0-----1--------------1-------------1------
G-----0-----0-----0-----0----2---0-----0---0---0-----0---
D--------------------------------------------------------
A-------------------------------------------------------- 
E--------------------------------------------------------
[ Tab from: http://www.guitartabs.cc/tabs/j/jones_norah/shoot_the_moon_tab.html ]
e--------------------------------------------------------
B---------1--------------1-----------1-------3/5--3--1---
G------0-----0-------0-----0------0------0---------------
D---3-------------2-----------0--------------------------
A--------------------------------------------------------
E--------------------------------------------------------


Verse (repeat to end of song):



e--------------------------------------------------------
B--1-----1-----0-----1--------------1-------------1------
G-----0-----0-----0-----0----2---0-----0---0---0-----0---
D--------------------------------------------------------
A-------------------------------------------------------- 
E--------------------------------------------------------

e--------------------------------------------------------
B---------1--------------1-----------1-------1-----1-----
G------0-----0-------0-----0------0------0------0-----0--
D---3-------------2-----------0--------------------------
A--------------------------------------------------------
E--------------------------------------------------------

Comments