Jones Norah - Seven Years Chords & Tabs

 

Seven Years Chords & Tabs

Jones Norah Chords & Tabs

Version: 1 Type: Tab 0 ratings
1 star 2 stars 3 stars 4 stars 5 stars
comments

Seven Years Tab

   
Verses 1-4

e|----------------|----------------|----------------|----------------|
b|------1-------3-|------1-------1-|------1-------1-|--------------1-|
g|----0-------0---|----0-------0---|----2-------2---|----0h2p0---2---|
d|--2-------0-----|--2-------2-----|--0-------0-----|--2-------3-----|
a|3-------2-------|0---------------|----------------|----------------|
e|----------------|--------3-------|2---------------|1---------------|
[ Tab from: http://www.guitartabs.cc/tabs/j/jones_norah/seven_years_tab.html ]
 
e|----------------|----------------|----------------|------0---------|
b|------1-------0-|------1-------1-|----------------|--------1-------|
g|----0-------1---|----0-------0---|2---0h2p0-------|----0-------0---|
d|--2-------0-----|--2-------2-----|--3-------3-----|--2-------------|
a|3---------------|0---------------|------------3---|3---------------|
e|--------0-------|--------3-------|1-------------1-|----------------|





Chorus

e|----------------|----------------|----------------|----------------|
b|3-----3---------|0-----0---------|------1-------1-|------1-------1-|
g|----0---------0-|1---1---------1-|----2-------0---|----0-------0---|
d|--0---------0---|--0---------0---|--2-------2-----|--2-------0-----|
a|----------2-----|----------2-----|0-------2-------|3-------2-------|
e|3---------------|0---------------|----------------|----------------|


e|----------------|2---------------|----------------|
b|------1-------1-|1---------------|----------------|
g|----2-------2---|2---------------|----------------|
d|--2-------2-----|0---------------|----------------|
a|0-------0-------|----------------|----------------|
e|----------------|----------------|----------------|



h:hammer
p:pull
Comments