Jones Norah - One Flight Down Chords & Tabs

 

One Flight Down Chords & Tabs

Jones Norah Chords & Tabs

Version: 1 Type: Tab 1 rating
1 star 2 stars 3 stars 4 stars 5 stars
comments

One Flight Down Tab

Song  : One Flight Down (Jesse Harris)
Artist: Norah Jones

gyr84me@yahoo.com

Capo on 1st fret.



intro

E|----------------|0-------0-------|0--------------0|1-----1-0----1-0|3---3---3---0-1-|
B|----------------|1-------0-------|2-----------2s3-|3-3-----3-------|3---3---0-------|
G|----------------|0-------0-------|2---------------|2---2---2-------|0---0---0-------|
D|----------------|2-------0-------|2---------------|0-------2-------|0---0---0-------|
A|--------------3-|3-------2-------|0---------------|x-------4-------|x---0---2-------|
E|-----------3-5--|0-------0-------|0---------------|x-------x-------|3---3---3-------|

E|3-------6-5-----|5-------3-------|3-------3---3---|3-------3-------|
B|1-1-----8---8-5-|6---6---3---5-3-|5-------5---3---|5-------3-------|
G|0-------6-------|5-------4-------|5-------4---4---|5-------4-------|
D|2-------8-------|7-------5-------|5-------3---3---|5-------5-------|
A|3---------------|5-------5-------|3-------3---3---|3-------5------3|
E|0---------------|5-------3-------|3-------3---3---|3-------3---3-5-|



VERSE 1

    One   flight     down,    Theres a song       on    low,    And your minds just picked up on the 
E|0-------0---------|0---------------0|1-------0-------|3---3---3-------|0----------6-----------|
B|1-------0---------|2------------2s3-|3-------3-------|3---3---3-------|1----------8-----------|
G|0-------0---------|2----------------|2-------2-------|0---0---0-------|0----------6-----------|
D|2-------0---------|2----------------|0-------2-------|0---0---0-------|2----------8-----------|
A|3-------2---------|0----------------|x-------4-------|x---0---2-------|3----------x-----------|
E|0-------0---------|0----------------|x-------x-------|3---3---3-------|0----------x-----------|

  sound,     Now you know    you're    wrong.Because it drifts    like   smoke,             And its 
E|5-------3---------|0-------0--------|0---------------|1-------0-------|3----3-----3-----------|
B|6-------3---------|1-------0--------|2---------------|3-------3-------|3----3-----3-----------|
G|5-------4---------|0-------0--------|2---------------|2-------2-------|0----0-----0-----------|
D|7-------5---------|2-------0--------|2---------------|0-------2-------|0----0-----0-----------|
A|5-------5---------|3-------2--------|4---------------|x-------4-------|x----0-----2-----------|
E|5-------3---------|0-------3--------|0---------------|x-------x-------|3----3-----3-----------|

been there,playing all along,  Now you know,   Now you  know              The reeds and brass have been 
E|0--------6--------|5--------3-------|3-------3---3---|x-------x-------|x-------x--------------|
B|1--------8--------|6--------3-------|5-------5---3---|----5-------5---|----5----------5-------|
G|0--------6--------|5--------4-------|5-------4---4---|5-5-5---5-5-5---|----5----------5-------|
D|2--------8--------|7--------5-------|5-------3---3---|5-5-5---5-5-5---|----5----------5-------|
A|3--------x--------|5--------5-------|3-------3---3---|3-3---3-2------2|x--------------x-------|
E|0--------x--------|5--------3-------|3-------3---3---|x-------x-------|6------------6-5-------|
[ Tab from: http://www.guitartabs.cc/tabs/j/jones_norah/one_flight_down_tab.html ]
   playing,           Leading into a   single           note
E|x---x----3--------|-----------------|x---------------|3---------------|
B|----1----3--------|----5--------5---|1---------------|3---------------|
G|----1----4--------|----5--------5---|1---------------|4---------------|
D|----1----5--------|----5--------5---|1---------------|5---------------|
A|----3----5--------|-------------x---|3---------------|5---------------|
E|4-----4--3----3-5-|6------6-5-------|x---------------|3---------------|


VERSE 2.


         In this     place, Where your arms          unfold,     Here at last you,  see your ancient
E|0-------0---------|0---------------0|1-------0-------|3---3---3-------|0----------6-----------|
B|1-------0---------|2------------2s3-|3-------3-------|3---3---3-------|1----------8-----------|
G|0-------0---------|2----------------|2-------2-------|0---0---0-------|0----------6-----------|
D|2-------0---------|2----------------|0-------2-------|0---0---0-------|2----------8-----------|
A|3-------2---------|0----------------|x-------4-------|x---0---2-------|3----------x-----------|
E|0-------0---------|0----------------|x-------x-------|3---3---3-------|0----------x-----------|

  face,      Now you know,   now you   know            the cadence rolls in broken
E|5-------3---------|3--------3---3---|x-------x-------|x-----X---------|x----x-----3-----------|
B|6-------3---------|5--------5---3---|----5-------5---|----5------5----|-----1-----3-----------|
G|5-------4---------|5--------4---4---|5-5-5---5-5-5---|----5------5----|-----1-----4-----------|
D|7-------5---------|5--------3---3---|5-5-5---5-5-5---|----5------5----|-----1-----5-----------|
A|5-------5---------|3--------3---3---|3-3---3-2------2|x-------x-------|-----3-----5-----------|
E|5-------3---------|3--------3---3---|x-------x-------|6-----6-5-------|4-------4--3-----3--5--|


   plays it over and then goes
E|------------------|x----------------|3---------------|
B|-----5--------5---|1----------------|3---------------|
G|-----5--------5---|1----------------|4---------------|
D|-----5--------5---|1----------------|5---------------|
A|--------------x---|3----------------|5---------------|
E|6-------6-5-------|x----------------|3---------------|



Verse 3.


         One flight  down,   theres a  song      on    low     And it's been there, playing all
E|0-------0---------|0---------------0|1-------0-------|3---3---3-------|0----------6-----------|
B|1-------0---------|2------------2s3-|3-------3-------|3---3---3-------|1----------8-----------|
G|0-------0---------|2----------------|2-------2-------|0---0---0-------|0----------6-----------|
D|2-------0---------|2----------------|0-------2-------|0---0---0-------|2----------8-----------|
A|3-------2---------|0----------------|x-------4-------|x---0---2-------|3----------x-----------|
E|0-------0---------|0----------------|x-------x-------|3---3---3-------|0----------x-----------|

 along       now you know    now you  know.            
E|5-------3---------|3--------3---3---|3---------------|
B|6-------3---------|5--------5---3---|5---------------|
G|5-------4---------|5--------4---4---|5---------------|
D|7-------5---------|5--------3---3---|5---------------|
A|5-------5---------|3--------3---3---|3---------------|
E|5-------3---------|3--------3---3---|3---------------|




Comments