Jones Norah - Carnival Town Chords & Tabs

 

Carnival Town Chords & Tabs

Jones Norah Chords & Tabs

Version: 1 Type: Chords 0 ratings
1 star 2 stars 3 stars 4 stars 5 stars
comments

Carnival Town Chords

   
Norah Jones - Carnival Town


Intro:

|-----------------------------------|
|----1---1---3---3---5---5---3---3--|
|----2---2---2---2---2---2---2---2--|
|--3-------3-------3-------3--------|
|------3-------3-------3-------3----|
|-----------------------------------|

Verse:

|--------------------------------0----------|
|----1---1---3---3---5---5---3---3---3---3--|
|----2---2---2---2---2---2---1---1---1---1--|
|--3-------3-------3-------2-------2--------|
|------3-------3-------3-------2-------2----|
|-------------------------------------------|

|--------0---5---5----1---(1)---------|
|----1---1---6---6----1--1-----1---1--|
|----2---2---5--------2--2-----2---2--|
|-------------------3--------3--------|
|--0---0----------------3--------3----|
|----------6---6----------------------|

Chorus:

|------------------------------------|
|----2---2---2---2----1---1---1---1--|
|----2---2---3---3----2---2---2---2--|
|----3---3---3---3--3-------2--------|
|--1---1---1---1--------3-------3----|
|------------------------------------|
[ Tab from: http://www.guitartabs.cc/tabs/j/jones_norah/carnival_town_crd.html ]
|--------------------|
|----2---2----2---2--|
|----2---2----3---3--|
|----3---3----3---3--|
|--1---1----1---1----|
|--------------------|




intro: F , F6 , Fmaj7 , F6

F
Round 'n' round
     F6
carousel
    Fmaj7              E7
has got you under it's spell
          Am     Bbmaj7/9  
moving so fast ... but
        F     F9  F
going nowhere

Up 'n' down
ferris wheel
tell me how does it feel
to be so high ... 
             F
looking down here

      Bbm- Bbm6
Is it lo   nely ?
F   C6
lo  nely
Bbm- Bbm6   F     
lo          nely

Instrumental: (Just like the verse)

Did the clown
make you smile 
he was only your fool for a while
now he's gone back home
and left you wandering there

Instrumental: (Just like the verse)

Is it lonely ?
lonely
lonely

outro: F , F6 , Fmaj7 , F6 , F


Elad Matari
eladmat@walla.co.il
Comments