Jonathan Richman - Egyptian Reggae Chords & Tabs

 

Egyptian Reggae Chords & Tabs

Jonathan Richman Chords & Tabs

Version: 1 Type: Tab 0 ratings
1 star 2 stars 3 stars 4 stars 5 stars
comments

Egyptian Reggae Tab

   
-------------------------------------------------------------------------------
	EGYPTIAN REGGAE - Jonathan Richman and the Modern Lovers
-------------------------------------------------------------------------------
Tabbed by: despaired
Email: a_heberlein@web.de

Tuning: Standard Tuning EADGBe

^ : brush up
v : brush down
~ : let ring

INTRO:

e|---------------------------------------------------------------------------|
B|---------------------------------------------------------------------------|
G|---------------------------------------------------------------------------|
D|------------------------------3--------------------------------------------|
A|-----3--5--5-5--3--------3--5-----5--3----------3--5--5-5--3---------------|
E|--5---------------5--5-----------------5--5-5---------------5--------------|

e|---------------------------------------------------------------------------|
B|---------------------------------------------------------------------------|
G|---------------------------------------------------------------------------|
D|-----------3---------------------------------------------------------------|
A|-----3--5-----5--3----------3---------------------3------------------------|
E|--5-----------------5--5-5-----3--3-3--6--5--5-5-----3--3-3--6--5----------|
[ Tab from: http://www.guitartabs.cc/tabs/j/jonathan_richman/egyptian_reggae_tab.html ]
e|---------------------------------------------------------------------------|
B|---------------------------------------------------------------------------|
G|---------------------------------------------------------------------------|
D|-------------3--5--5-5-----------------------------------------------------|
A|--3--5--5-5-------------5--5-5--3-5----------------------------------------|
E|---------------------------------------------------------------------------|


RIFF 1:

     Dm	          Am

e|-x--5-5-x--5--x--5-5-x--5---------|
B|-x--6-6-x--6--x--5-5-x--5---------|
G|-x--7-7-x--7--x--5-5-x--5---------|
D|-x--7-7-x--7--x--6-6-x--6---------|  play 4x
A|-x--5-5-x--5--x--6-6-x--6---------|
E|-x--5-5-x--5--x--5-5-x--5---------|

   v  v ^ v  v  v  v ^ v  v


RIFF 2:

e|-x--3-3-x--3--x--5-5-x--5--x--3-3-x--3--5---5~--|
B|-x--3-3-x--3--x--5-5-x--5--x--3-3-x--3--5---5~--|
B|-x--3-3-x--3--x--5-5-x--5--x--3-3-x--3--5---5~--|
G|-x--3-3-x--3--x--5-5-x--5--x--3-3-x--3--5---5~--|  play 1x
D|-x--5-5-x--5--x--6-6-x--6--x--5-5-x--5--6---6~--|  
A|-x--5-5-x--5--x--6-6-x--6--x--5-5-x--5--6---6~--|
E|-x--3-3-x--3--x--5-5-x--5--x--3-3-x--3--5---5~--|

   v  v ^ v  v  v  v ^ v  v  v  v ^ v  v  v   v



That's it! Simply change between Riff 1 and Riff 2.

If you like improvise in D-Minor with a second guitar.
Comments