Jonah33 - Watching You Die Chords & Tabs

 

Watching You Die Chords & Tabs

Jonah33 Chords & Tabs

Version: 1 Type: Bass Tab 0 ratings
1 star 2 stars 3 stars 4 stars 5 stars
comments

Watching You Die Bass Tab

   
Watching you die by Jonah33
(G,D,A,C#)

(Intro)
G:------------------------|
D:------------------------|  x4
A:------------------------|
C#3-3-3--3-3-3--3-3-3--1-1|

G:------------------------------------------------|
D:------------------------------------------------|
A:-----------------------2-2-2--2-2-3-3-3---------|
C#3-3-3--3-3--1-1-1--1-1-------------------6-6-8-4|

G:-----------------------------------------------------|
D:-----------------------------------------------------|
A:-----------------------2-2-2-2-2-3-3-3--3-3---1-1----|
C#3-3-3--3-3--1-1-1--1-1----------------------0-----0-6|

G:------------------------------------------------|
D:------------------------------------------------|
A:-----------------------2-2-2--2-2-3-3-3---------|
C#3-3-3--3-3--1-1-1--1-1-------------------6-6-8-4|

G:----------------------------------------|
D:----------------------------------------|
A:-----------------------2-2-2--2-2--3-3-3|
C#3-3-3--3-3--1-1-1--1-1------------------|

G:-----------------------------|
D:-----------------------------|
A:---------------3-3--2-2-2-2-3|
C#3-3--1-1-1-1-3---------------|

G:-----------------------------|
D:-----------------------------|
A:x-x-0-0--x-x-0-0--0-0-1-1----|
C#--------------------------6-6|

G:-----------------------------|
D:-----------------------------|
A:7-7-5-5-5-5-7--3-3--2-2-2-2-3|
C#-----------------------------|

G:-----------------------------|
D:-----------------------------|
A:x-x-0-0--x-x-0-0--0-0-1-1----|
C#--------------------------6-6|

G:-----------------------------|
D:-----------------------------|
A:---------------3-3--2-2-2-2-3|
C#3-3--1-1-1-1-3---------------|

G:-----------------------------|
D:-----------------------------|
A:7-7-5-5-5-5-7--3-3--2-2-2-2-3|
C#-----------------------------|

G:-----------------------------|
D:-----------------------------|
A:x-x-0-0--x-x-0-0--0-0-1-1----|
C#--------------------------6-6|

G:------------------------|
D:------------------------|  x2
A:------------------------|
C#3-3-3--3-3-3--3-3-3--1-1|

G:------------------------------------------------|
D:------------------------------------------------|
A:-----------------------2-2-2--2-2-3-3-3---------|
C#3-3-3--3-3--1-1-1--1-1-------------------6-6-8-4|
[ Tab from: http://www.guitartabs.cc/tabs/j/jonah33/watching_you_die_btab.html ]
G:-----------------------------------------------------|
D:-----------------------------------------------------|
A:-----------------------2-2-2-2-2-3-3-3--3-3---1-1----|
C#3-3-3--3-3--1-1-1--1-1----------------------0-----0-6|

G:------------------------------------------------|
D:------------------------------------------------|
A:-----------------------2-2-2--2-2-3-3-3---------|
C#3-3-3--3-3--1-1-1--1-1-------------------6-6-8-4|

G:----------------------------------------|
D:----------------------------------------|
A:-----------------------2-2-2--2-2--3-3-3|
C#3-3-3--3-3--1-1-1--1-1------------------|

G:----------|
D:----------|
A:------0--0|
C#3--3------|

G:-----------------------------|
D:-----------------------------|
A:---------------3-3--2-2-2-2-3|
C#3-3--1-1-1-1-3---------------|

G:-----------------------------|
D:-----------------------------|
A:x-x-0-0--x-x-0-0--0-0-1-1----|
C#--------------------------6-6|

G:----------|
D:----------|
A:3--3--0--0|
C#----------|

G:-----------------|
D:-----------------|
A:--/7---/7-------1|
C#3----3----3-6-3--|

G:----------|
D:----------|
A:3--3--0--0|
C#----------|

G:-----------------|
D:-----------------|
A:--/7---/7-------1|
C#3----3----3-6-3--|

G:----------|
D:----------|  x3
A:3--3--0--0|
C#----------|

G:--------------------|
D:--------------------|  x2
A:--------------------|
C#3-3--3-3--3-3--1-1-1|

G:----------------------------------------|
D:----------------------------------------|
A:-----------------------2-2-2--2-2--3-3-3|
C#3-3-3--3-3--1-1-1--1-1------------------|

G:-----------------------------|
D:-----------------------------|
A:x-x-0-0--x-x-0-0--0-0-1-1----|
C#--------------------------6-6|

G:-----------------------------|
D:-----------------------------|
A:7-7-5-5-5-5-7--3-3--2-2-2-2-3|
C#-----------------------------|

G:-----------------------------|
D:-----------------------------|
A:x-x-0-0--x-x-0-0--0-0-1-1----|
C#--------------------------6-6|

G:-------------------------|
D:-------------------------|
A:-----------0(8)--1(6)-0--|
C#3(8)--1(8)--------------6|

G:-----------------|
D:-----------------|
A:--/7---/7-------1|
C#3----3----3-6-3--|

G:-------------------|
D:-------------------|
A:--/7---/7----------|
C#3----3----3-6-1-1-3|

G:-----------------|
D:-----------------|
A:--/7---/7-------1|
C#3----3----3-6-3--|

(Outro)
G:-------------------|
D:-------------------|
A:--/7---/7----------|
C#3----3----3-6-1-1-3|

Thanks, please rate it after you learn it.
Tabbed by:
_TheBassist01_
Comments