Jon Spencer Blues Explosion - Orange Chords & Tabs

 

Orange Chords & Tabs

Jon Spencer Blues Explosion Chords & Tabs

Version: 1 Type: Tab 0 ratings
1 star 2 stars 3 stars 4 stars 5 stars
comments

Orange Tab

#----------------------------------PLEASE NOTE---------------------------------#
#This file is the author's own work and represents their interpretation of the #
#song. You may only use this file for private study, scholarship, or research. #
#------------------------------------------------------------------------------##
From: ihbryant@mailhost.ecn.uoknor.edu (Ira Houston Bryant Iv)
Subject: TAB:Orange by The Jon Spencer Blues Explosion

This is a tab from one of my favorite bands.
I hope you enjoy it, and I hope I did it right.
Please email me any corrections.

I've worked up part of Afro from Extra Width, too.  If anyone is
interested I can finish it.

Orange
from the album Orange
by The Jon Spencer Blues Explosion
transcribed by Ira H. Bryant IV
(ihbryant@mailhost.ecn.uoknor.edu)

I can't tell the words from listening.  If anyone figures them out,
please email them, and I'll post it all together


This is my first time to tab fancy stuff (hammer-ons, pull-offs, etc.)
I used the standard conventions from the archive as such:

----p5----|  pull-off to fret five
----h7----|  hammer-on to fret seven
--8b(9)---|  play fret eight, bend the string (at fret eight) to reach the
             pitch of fret nine
--b(9)8--  play fret eight already bent to the pitch of fret nine,
             releasing until it reaches the normal pitch of fret eight

The Jon Spencer Blues Explosion has 2 guitarists (one sings, too.)
I arranged this for one, but I'm afraid it jumps around the fretboard
some.  If you figure out a better way to play it, (other than with
two guitars, of course) please post it.

Dropped D tuning (DADGBE)


E:--------3--3-3-------------------------------------------------|
B:--------2--2-2-------------------------------------------------|
G:--------3--3-3--0--5-p4-p0--5b(7)5-p4-p0--3b(4)------------p0--|
D:---------------------------------------------------------------|
A:---------------------------------------------------------------|
D:--0------------------------------------------------------------|


play 8 times

E:--------------------|
B:--------------------|
G:-------------0------|
D:--------------------|
A:-----2---3----------|
D:--5----5---5--------|


E:-------------------------------------------|
B:-------------------------------------------|
G:------------------5b(7)5-p4-p0--3b(4)--p0--|
D:--9--9-9-9-9--12---------------------------|
A:--9--9-9-9-9--12---------------------------|
D:--9--9-9-9-9--12---------------------------|


E:--------3--3-3-------------------------------------------------|
B:--------2--2-2-------------------------------------------------|
G:--------3--3-3--0--5-p4-p0--5b(7)5-p4-p0--3b(4)------------p0--|
D:---------------------------------------------------------------|
A:---------------------------------------------------------------|
D:--0------------------------------------------------------------|

play 8 times

E:--------------------|
B:--------------------|
G:-------------0------|
D:--------------------|
A:-----2---3----------|
D:--5----5---5--------|

[ Tab from: http://www.guitartabs.cc/tabs/j/jon_spencer_blues_explosion/orange_tab.html ]
E:----------------------------------------------------------------|
B:----------------------------------------------------------------|
G:------------------5b(7)5-p4-p0--3b(4)--p0-----------------------|
D:--9--9-9-9-9--12----------------------------12--12-12-12-12--9--|
A:--9--9-9-9-9--12----------------------------12--12-12-12-12--9--|
D:--9--9-9-9-9--12----------------------------12--12-12-12-12--9--|


E:--------3--3-3----------------------------------|
B:--------2--2-2----------------------------------|
G:--------3--3-3--0--5-p4-p0----------------------|
D:----------------------------12--12-12-12-12--9--|
A:----------------------------12--12-12-12-12--9--|
D:--0-------------------------12--12-12-12-12--9--|

play 4 times

E:------------------------------|
B:------------------------------|
G:------------------------------|
D:--7--9--7-9-7-7--9--7--9-9-7--|
A:--7--9--7-9-7-7--9--7--9-9-7--|
D:------------------------------|


E:----------------------------------------------------|
B:-----------------------------------------14---------|
G:-----11b(12)-----11b(12)-----11b(12)---------12-----|
D:----------------------------------------------------|
A:--7-----------7-----------7-----------7----------7--|
D:--7-----------7-----------7-----------7----------7--|


E:-------------------------------------------------|
B:-------------------------------------------------|
G:--11b(12)-----11b(12)-----11b(12)----------------|
D:-------------------------------------------------|
A:-----------7-----------7-----------7-------------|
D:-----------7-----------7-----------7-------------|


E:-------------------------------------------------|
B:--14--14--14-----14-----14------14-----14--------|
G:--12--12--12-----12-----12------12-----12--------|
D:--------------11----11------11------11----11-----|
A:-------------------------------------------------|
D:-------------------------------------------------|

E:--------------------------------------------------------------------|
B:--14--14--14-----14-----14-----14-----------------------------------|
G:--12--12--12-----12-----12-----------11b(12)-9----------------------|
D:--------------11----11------11----11------------12--12-12-12-12--9--|
A:------------------------------------------------12--12-12-12-12--9--|
D:------------------------------------------------12--12-12-12-12--9--|

E:--------3--3-3-------------------------------------------------|
B:--------2--2-2-------------------------------------------------|
G:--------3--3-3--0--5-p4-p0--5b(7)5-p4-p0--3b(4)----------------|
D:---------------------------------------------------------------|
A:---------------------------------------------------------------|
D:--0------------------------------------------------------------|

play 8 times

E:--------------------|
B:--------------------|
G:-------------0------|
D:--------------------|
A:-----2---3----------|
D:--5----5---5--------|


Ira
______________________________________________________________________________
|  ihbryant@mailhost.ecn.uoknor.edu |  Member, Triangle Fraternity, OK Chap. |
|----------------------------------------------------------------------------|
|  Let us go and be killed where we are told to go.  Is life worth so many   |
|  questions?	 --Athos, from "The Three Musketeers" by Alexandre Dumas     |
------------------------------------------------------------------------------
Comments