Jolly Rogers - Till Death Do We Part Chords & Tabs

 

Till Death Do We Part Chords & Tabs

Jolly Rogers Chords & Tabs

Version: 1 Type: Tab 0 ratings
1 star 2 stars 3 stars 4 stars 5 stars
comments

Till Death Do We Part Tab

Put Guitar in Drop D. This is for rhythm guitar


Verse

E---------------------------------------------------------------
B---------------------------------------------------------------
G---------------------------------------------------------------
D---------------------------------------------------------------
A-0-0-0--4-4-4-5------0-0-0--4-4-4-5----------------------------
D-0-0-0--4-4-4-5------0-0-0--4-4-4-5----------------------------
                         (palm mute)x8

Chorus
[ Tab from: http://www.guitartabs.cc/tabs/j/jolly_rogers/till_death_do_we_part_tab.html ]
E----------------------------------------------------------------
B----------------------------------------------------------------
G----------------------------------11h12h11----------------------
D----------------------------------------------------------------
A-0-0-0-0--9-9-9-9-7-7-7-7--5-5-5--------------------------------
D-0-0-0-0--9-9-9-9-7-7-7-7--5-5-5--------------------------------

   (x4)

repeat verse, then repeat chorus

E----------------------------------------------------------------
B----------------------------------------------------------------
G----------------------------------------------------------------
D----------------------------------------------------------------
A-0----7----5----5----0------------------------------------------
D-0----7----5----5----0------------------------------------------

     (x4)

Then fade out with volume,Then fade back in
Comments