Jokke Og Valentinerene - Hvis Jeg Var Deg Chords & Tabs

 

Hvis Jeg Var Deg Chords & Tabs

Jokke Og Valentinerene Chords & Tabs

Version: 1 Type: Tab 0 ratings
1 star 2 stars 3 stars 4 stars 5 stars
comments

Hvis Jeg Var Deg Tab

   
-------------------------------------------------------------------------------
			     Hvis jeg var deg - Jokke og valentinerene
-------------------------------------------------------------------------------
Tabbed by:Espen Rian Skog
Email:Espenskog@gmail.com	

Tuning:EADGBE(standard)

     Em             G          A               c 
Hvis jeg var deg så ville jeg spandert en øl på meg
     Em             G          A               c
hvis jeg var deg så ville jeg spandert en fyll på meg
Em              B            Em           A
tenk på alt det morsomme vi sammen kunne gjort
Em                   G        A                 Em
hvis jeg var deg så ville jeg spandert en øl på meg

ref1:
From here the song picks up some speed, and you could use powerchords to get
a "rougher" sound.

    Em  G  A  c  B
e|---------------------------------------------------------------------------|
B|---------------------------------------------------------------------------|
G|------------5--4-----------------------------------------------------------|
D|--2---5--7--5--4-----------------------------------------------------------|
A|--2---5--7--3--2-----------------------------------------------------------|
E|--0---3--5-----------------------------------------------------------------|

If you use powerchords, the strumming will be something like this, 
listen to the song, and you'll get it right.

e|---------------------------------------------------------------------------|
B|---------------------------------------------------------------------------|
G|---------------------------------------------------------------------------|
D|----2-2-2-2-2----5-5-5-5-5-------------------------------------------------|
A|----2-2-2-2-2----5-5-5-5-5-------------------------------------------------|
E|--0------------3-----------------etc...------------------------------------|
[ Tab from: http://www.guitartabs.cc/tabs/j/jokke_og_valentinerene/hvis_jeg_var_deg_tab.html ]
     Em             G          A               c 
Hvis jeg var deg så ville jeg spandert en øl på meg
     Em             G          A               c 
hvis jeg var deg så ville jeg tatt en fyll med meg
     Em              B            Em           A
tenk på alt det morsomme vi sammen kunne gjort
     Em                   G        A             Em
hvis jeg var deg så ville jeg spandert en øl på meg

Og hvis jeg var deg så ville jeg gitt meg alt du eier
veldedighet er in for tida
gi meg alt du eier
tenk deg hvilken byrde som vil løftes fra ditt hjerte
og tenk deg hvilken byrde som vil løfte seg fra mitt

ref2:
     c              G          F              c
For jeg orker ikke tanken på å gå ned til min seng
c            G        F             c
ligge der i mørket og lytte til min by
Em             G
En by som alle rømmer til
   F             Em
en kirkegård av drømmer
   Em              G          
Og ingen veit helt hva dem vil
      F                Em
eller hvordan dem skal få det til
så..

ref1:
ref2:
så..
ref1:

Em
hvis jeg var deg, hvis jeg var deg
Em
hvis jeg var deg
Em
hvis jeg var deg.....

Short outro:

e|---------------------------------------------------------------------------|
B|---------------------------------------------------------------------------|
G|------2-3^4-3~ ------------------------------------------------------------|
D|--2-5----------------------------------------------------------------------|
A|---------------------------------------------------------------------------|
E|---------------------------------------------------------------------------|

Lyrics from www.jokke.nu

| /  slide up
| \  slide down
| h  hammer-on
| p  pull-off
| ~  vibrato
| +  harmonic
| x  Mute note
| ^  Bend 
===============================================================================
Comments