Jokke Og Valentinerene - Gutta Chords & Tabs

 

Gutta Chords & Tabs

Jokke Og Valentinerene Chords & Tabs

Version: 1 Type: Tab 0 ratings
1 star 2 stars 3 stars 4 stars 5 stars
comments

Gutta Tab

   
-------------------------------------------------------------------------------
			     Gutta - Jokke og Valentinerne
-------------------------------------------------------------------------------
Tabbed by:Espen Rian Skog	
Email:Espen.skog@student.uib.no	

Tuning:EADGBE

Intro:

e|------------------------3-3---5-5------------------------------------------|
B|--7-7-7-----------------3-3---5-5------------------------------------------|
G|--7-7-7-7/9-9\7---------4-4---4-4------------------------------------------|
D|--7-7-7---------7/9-9\7-5-5---7-7------------------------------------------|
A|--5-5-5-----------------5-5---7-7---7/9\7----------------------------------|
E|------------------------3-3---5-5------------------------------------------|
x3 then
e|------------------------3-3-3--5-5------------------------------------------|
B|--7-7-7-----------------3-3-3--5-5------------------------------------------|
G|--7-7-7-7/9-9\7---------4-4-4--4-4------------------------------------------|
D|--7-7-7---------7/9-9\7-5-5-5--7-7------------------------------------------|
A|--5-5-5-----------------5-5-5--7-7---7/9\7----------------------------------|
E|------------------------3-3-3--5-5------------------------------------------|

This is the riff used throughout the song, listen for the strumming on the chorus and
u'll perfect it in no time...
Here are the lyrics/chords:

D	         G    A
Ja, så sitter vi her igjen
D	           G	 A
Som om vi var no'n gamle menn
D	                   G	  A
Vi lever av øl og sprit og dop og gamle
D	                         G  A
historier, som alle har hørt fra før
[ Tab from: http://www.guitartabs.cc/tabs/j/jokke_og_valentinerene/gutta_tab.html ]
 	  Bm	F#	G	D
For vi er gutta som har opplevd alt
      Bm      F#   G	   A
Så vi trenger ikke oppleve mer
	    Bm	   F#	            G	      D
Vi har vært verden rundt, det vil si Køben og London
	 Bm    F#	     G	    A
Det fins ingen ting som ikke vi har prøvd
      D	            G	        A
Så vi sitter her og kjeder hverandre
	D	                  G	 A
Mens vi krangler om hvem som skal gå og handle

D	G	A
Ja, så sitter vi her igjen
D	G	A
Og venter på at noe skal skje
D	G	A
Hjertet blir kaldt, mens ølet blir varmt
D	G	A
Og vi byner å få litt vondt for å le

	  Bm
For vi er guttah..etc

	F	       Dm	  F                       bb
Jeg husker alle våre store planer, og alt vårt hat  yeah!
		F   Am	        C
Hvor er det hatet nå, jeg føler ingenting
	F	Dm	        F                         bb
Vi pleide å gå rundt å drømme, drømme om vår hevn yeah! 
		F	Am	C	D
Hva var det vi skulle hevne? Jeg husker ingenting, ingenting

D	      G	       A
Ja, så er man endelig voksen
D	              G	         A
Søvnløs om natta og bevistløs om da'n
D	                G	 A
Og pengeproblemer og kvinnfolkproblemer
D	                    G	   A
Og alkoholproblemer som de gamle bohemer

Great song...Enjoy...
| /  slide up
| \  slide down
| h  hammer-on
| p  pull-off
| ~  vibrato
| +  harmonic
| x  Mute note
===============================================================================
Comments