Jojo - Secret Love Chords & Tabs

 

Secret Love Chords & Tabs

Jojo Chords & Tabs

Version: 2 Type: Tab 0 ratings
1 star 2 stars 3 stars 4 stars 5 stars
comments

Secret Love Tab

Intro

-5--7--8--7--5h7p5--3--0----------------------------------|
 -------------------------5h3--1--3---3--1----------------|
 ------------------------------------------0--0/2---------|
 ---------------------------------------------------------|
 ---------------------------------------------------------|
 ---------------------------------------------------------|

[ Tab from: http://www.guitartabs.cc/tabs/j/jojo/secret_love_tab_ver_2.html ]
 ------8--7--5--5h7p5----------------------5h7--5--------|
 -3/5--------------------5h6-5h6--5/6/5------------------|
 --------------------------------------------------------|
 --------------------------------------------------------|
 --------------------------------------------------------|
 --------------------------------------------------------|

 -----------8--7--5--5h7p5-----------------------5h7--5--|
 -5h6--3/5-------------------5h6-5h6--5/6-5/6/5----------|
 --------------------------------------------------------|
 --------------------------------------------------------|
 --------------------------------------------------------|
 --------------------------------------------------------|
Comments