Jojo - Leave Get Out Chords & Tabs

 

Jojo Chords & Tabs

Version: 3 Type: Tab 0 ratings
1 star 2 stars 3 stars 4 stars 5 stars
comments

Leave Get Out Tab

-----------------------------------------------------------------------
			  Leave Get Out- JoJo
-----------------------------------------------------------------------
Tabbed by: dudeteofaces
Email: dudeteofdiamonds@yahoo.com

Tuning: standard
[ Tab from: http://www.guitartabs.cc/tabs/j/jojo/leave_get_out_tab_ver_3.html ]
e|---------------------------------------------------------------------|
B|----------11--10------------8--6-------------6--5---3/-1-------------|
G|-------12----------------7----------------5---------------3----------|
D|----12----------------7----------------5-----------------------------|
A|-10----------------5----------------3--------------------------------|
E|---------------------------------------------------------------------|

That's played through the entire song. This is my first tab so I hope it's  all right. 
e-mail me if you have any corrections. Thanks.
Comments