Jojo - Leave Get Out Chords & Tabs

 

Jojo Chords & Tabs

Version: 1 Type: Tab 4 ratings
1 star 2 stars 3 stars 4 stars 5 stars
comments

Leave Get Out Tab

"Leave (Get Out)" by JoJo
Tab by Tim Roche (roctimo@lycoming.edu)
Tuning: Standard
  
Hey, I heard this on MTV, and decided that I should tab it because it sounded easy enough.  
Email me with any corrections there might be and I'll straighten it out if you know how to 
fix it.  Thanks.  PS - No rhythms are shown here, just the notes and base chords of the sections...
how it's strummed is up to you.



Verses, etc.
  
E |-------------------------------------------------------------------------------------|
B |----------------11--10--------------8--6--------------6--5--------3--1---------------|
G |o----------10-------------------5------------------5---------------------3----------o|
D |o------12--------------------7------------------5-----------------------------------o|
A |---10---------------------5------------------3---------------------------------------|
E |-------------------------------------------------------------------------------------|


[ Tab from: http://www.guitartabs.cc/tabs/j/jojo/leave_get_out_tab.html ]
Chorus
 
E |------3-------------5-------------3--------------1----------|
B |------3-------------6-------------5--------------3----------|
G |o-----3-------------7-------------5--------------3---------o|
D |o-----5-------------7-------------5--------------3---------o|
A |------5-------------5-------------3--------------1----------|
E |------3-------------5-------------3--------------1----------|

     "Get out......right now........its the end of you and me

  

Bridge

E |-------------------------------------------------------------| 
B |-------------------------------------------------------------|
G |------6-----8-----10------------6-----8----------------------|
D |------6-----8-----10------------6-----8-----8-----10---------|
A |------4-----6-----8-------------4-----6-----8-----10---------|
E |--------------------------------------------6-----8----------|

      "I wanted you right here with me..."





Easy enough, right?

=================================
roctimo@lycoming.edu
http://www.unlockyourmind.cjb.net
=================================
Comments