Join The Club - Nobela Chords & Tabs

 

Nobela Chords & Tabs

Join The Club Chords & Tabs

Version: 3 Type: Tab

Nobela Tab

   
Lance Lazarte
1st tym lang!
enjoy!

intro...

e -------------------------------------------|
b -------------------------------------------|
g -------------------------------------------|
D ------4-----s9-----11p9--8---4-------------|
A -------------------------------------------|
E -------------------------------------------|

e -------------------------------------------|
b -------------------------------------------|
g -------------------------------------------|
D ------4-----s9-----11p9--------------------|
A -------------------------12--9--7s9-5------|
E -------------------------------------------|


AM7           EM7
ngumiti kahit na napipilitan
A               B
kahit pa sinasadya
AM7            EM7
mo akong masaktan paminsan-minsan
A                  B
bawat sandali na lang

AM7           EM7
tulad mo ba akong nahihirapan
A               B
lalot naiisip ka
AM7            EM7
hindi ko na kaya pa na kalimutan
D                  B
bawat sandali na lang

chorus
      A          B
at aalis magbabalik
      EM7     C#m
at uuliting sabihin
       A          B
na mahalin kat sambitin
        G#m7      C#m
kahit muling masaktan
        A                B
sa pag alis akoy magbabalik
          EM7    C#m
at sana naman

AM7           EM7
sa isang marikit na alaalay
A               B
pangitaing kay ganda
AM7           EM7
sana ngay pagbigyan na ng tadhana
A               B
bawat sandali na lang

AM7           EM7
sumabay sa biglang pagkabahalat
A               B
lumabis ang pagtataka
AM7           EM7
tunay na pagsintang di alintana
D               B
bawat sandali na lang
[ Tab from: http://www.guitartabs.cc/tabs/j/join_the_club/nobela_tab_ver_3.html ]
chorus
      A          B
at aalis magbabalik
      EM7     C#m
at uuliting sabihin
       A          B
na mahalin kat sambitin
        G#m7      C#m
kahit muling masaktan
        A                B
sa pag alis akoy magbabalik
          EM7    C#m
at sana naman


solo

e -----------------------------------------------------|
B -----------------7s10--7-5-7--5--0---7-7-7s8-7-0-----|
G --7--9s11--9-7---------------------------------------|
D -----------------------------------------------------|
A -----------------------------------------------------|
E -----------------------------------------------------|  2X

e -----------------------------------------------------|
B -3-5-3--3s7-----7-8-7--5-3-2-3s7---7-7-8-8s10-7------|
G -----------------------------------------------------|
D -----------------------------------------------------|
A -----------------------------------------------------|
E -----------------------------------------------------|

e -----------------------------------------------------|
B -7-7-8s10-15----7-7-8s10-5---3-2-3--3s7--5-5-3-2-0---|
G ---------------------------------------------------2-|
D -----------------------------------------------------|
A -----------------------------------------------------|
E -----------------------------------------------------|


AM7           EM7
ngumiti kahit na napipilitan
A               B
kahit pa sinasadya
AM7            EM7
mo akong masaktan paminsan-minsan
D                  B
bawat sandali na lang


chorus
      A          B
at aalis magbabalik
      EM7     C#m
at uuliting sabihin
       A          B
na mahalin kat sambitin
        G#m7      C#m
kahit muling masaktan
        A                B
sa pag alis akoy magbabalik
          EM7    C#m
at sana naman