Join The Club - Hayaang Maidlip Chords & Tabs

 

Hayaang Maidlip Chords & Tabs

Join The Club Chords & Tabs

Version: 1 Type: Bass Tab

Hayaang Maidlip Bass Tab

Hayaang Maidlip - join the club

use a pick  and put the tone in you r bass to its highest point
strum at the middle part of the body of ur bass
, This is our version of hayaang maidlip , almost the same as the original one except 
the chorus parts . and the intro -Revin Enriquez-

Intro
G|---3/4/3------3/4/3-----3/4/3---------------------------------|
D|--------4----------6------------------------------------------|
A|-2------------------------------------------------------------|
E|------------------------------0/3/3-0/1/1---------------------|
B|--------------------------------------------------------------|

Verse
G|--------------------------------------------------------------|
D|--------------------------------------------------------------|
A|--33333-------------------55555-------------5/88888-----------|
E|--------33333-55555-11111-------33333-55555-------------------|
B|--------------------------------------------------------------|

G|-----------------------------------------------------------------|
D|-----------------------------------------------------------------|
A|-3-3-0-3-------------------0/3/3---------------------------------|
E|---------33333-55555-11111-------0/3/3-0/3/3-0/5/5-0/5/5-0/1/1---|
B|-----------------------------------------------------------------|

Chorus
G|--------------------------------------------------------------|
D|--------------------------------------------------------------|
A|-33333--------------------------------------------------------|x2
E|-------33333-55555-0/1-0/1111---------------------------------|
B|--------------------------------------------------------------|
[ Tab from: http://www.guitartabs.cc/tabs/j/join_the_club/hayaang_maidlip_btab.html ]
G|----------------------------------------------------------------|
D|----------------------------------------------------------------|
A|-3--------------------------------------------------------------|
E|---0/3-0/5-0/1-0/2/3/5--0/5-0/5 0/5/8---------------------------|
B|----------------------------------------------------------------|

Verse 2 (pareho lang nga notes kapain nyo lang)
Chorus

Bridge(same as Chorus)

Bass Solo
G|----?---?/?----------------------------------------------------|
D|------?--------------------------------------------------------|
A|--2------------------------------------------------------------|
E|---------------------------------------------------------------|
B|---------------------------------------------------------------|
Secret Kapain nyo simple lang yan...pentatonic scale lang

Lasr Chorus
G|--------------------------------------------------------------|
D|--------------------------------------------------------------|
A|-33333--------------------------------------------------------|x2
E|-------33333-55555-0/1-0/1111---------------------------------|
B|--------------------------------------------------------------|

G|--------------------------------------------------------------|
D|--------------------------------------------------------------|
A|-3(Hold)------------------------------------------------------|x2
E|-----------3(Hold)------5(Hold)-----1(Hold)-------------------|
B|--------------------------------------------------------------|

OUtro
G|--------------------------------------------------------------|
D|--------------------------------------------------------------|
A|-3/5-3/5----3/5-3/5-------------------------------------------|
E|---------3----------3-----------------------------------------|
B|--------------------------------------------------------------|

tnx sa banda 305
rev, myles , louiee , jem , j.m., ian