Johnston Jim - Rockin Chords & Tabs

 

Rockin Chords & Tabs

Johnston Jim Chords & Tabs

Version: 1 Type: Tab 0 ratings
1 star 2 stars 3 stars 4 stars 5 stars
comments

Rockin Tab

                           Jim Johnston - Rockin' (WWF Rockers)                                 
                                       by digiti


                                                    
E||------||-------|-------||---------------------------|
B||------||-------|-------||---------------------------|
G||------||*------|------*||*--------------------------|
D||------||*------|------*||*--------------------------|
A||------||-------|-------||---2--2--2--2--2--2--2--2--|
E||------||-------|-------||---0--0--0--0--0--0--0--0--|


                                                         
---------------------------||---------------------------|
---------------------------||---------------------------|
--------------------------*||*--------------------------|
--------------------------*||*--------------------------|
--5--5--5--7--7--7--5--5---||---2--2--2--2--2--2--2--2--|
--3--3--3--5--5--5--3--3---||---0--0--0--0--0--0--0--0--|

[ Tab from: http://www.guitartabs.cc/tabs/j/johnston_jim/rockin_tab.html ]
                                                         
---------------------------||---------------------------|
---------------------------||---------------------------|
--------------------------*||*--------------------------|
--------------------------*||*--------------------------|
--5--5--5--7--7--7--5--5---||---2--2--2--2--2--2--2--2--|
--3--3--3--5--5--5--3--3---||---0--0--0--0--0--0--0--0--|


                           3x                                                  
---------------------------||-------------------------|-----------------------|
---------------------------||-------------------------|-----------------------|
--------------------------*||*--5----5----4--4--4-----|-----------------------|
--------------------------*||*--5----5----4--4--4--2--|----2--2----2----2--2--|
--5--5--5--7--7--7--5--5---||---3----3----2--2--2--2--|----2--2----2----2--2--|
--3--3--3--5--5--5--3--3---||----------------------0--|----0--0----0----0--0--|


                                                                             
------------------------|-----------------------||--------------------------|
------------------------|-----------------------||--------------------------|
------------------------|----------------------*||--------------------------|
--7----7----5--5--5--2--|----2--2----2----2----*||--------------------------|
--7----7----5--5--5--2--|----2--2----2----2-----||--5--5--5--5--5--5--5--5--|
--5----5----3--3--3--0--|----0--0----0----0-----||--3--3--3--3--3--3--3--3--|


                                 
--------------------------|----||
--------------------------|----||
--------------------------|----||
--------------------------|----||
--7--7--7--7--7--7--7--7--|----||
--5--5--5--5--5--5--5--5--|----||
Comments