Johnson Jack - Traffic In The Sky Chords & Tabs

 

Traffic In The Sky Chords & Tabs

Johnson Jack Chords & Tabs

Version: 2 Type: Tab 4 ratings
1 star 2 stars 3 stars 4 stars 5 stars
comments

Traffic In The Sky Tab

   
“Traffic In The Sky”
By:  Jack Johnson

Intro & Verses:

    D		    F#m7		     C		  Em7
E -----------------------------------------------------------------
B ---7-----7--------10------10---------5-----5--------8-----8------
G -----7-----7---------9-------9---------5-----5--------7-----7---- repeat 4 times
D -------7-----7---------11------11--------5-----5--------9-----9--
A -5--------------9------------------3--------------7--------------
E -----------------------------------------------------------------
  

Chorus: 
[ Tab from: http://www.guitartabs.cc/tabs/j/johnson_jack/traffic_in_the_sky_tab_ver_2.html ]
    A		    A		G#	  G		    A
E ------------------------------------------------------------
B ------------------------------------------------------------
G ---6-----6--------6-------5------4-----4--------6-----6-----
D -----7-----7--------7-------6------5-----5--------7-----7---
A -------7-----7--------7-------6------5-----5--------7-----7-
E -5--------------5-------4-------3-------------5-------------
 
 
    D	    Bm		 G		    A		    
E -------------------------------------------------------
B ---7--------3-----3------------------------------------
G -----7--------4-----4------4-----4--------6-----6------
D -------7--------4-----4------5-----5--------7-----7----
A -5--------2--------------------5-----5--------7-----7--
E -------------------------3--------------5--------------
 

    D	    Bm		 G		    A		    
E -------------------------------------------------------
B ---7--------3-----3------------------------------------
G -----7--------4-----4------4-----4--------6-----6------
D -------7--------4-----4------5-----5--------7-----7----
A -5--------2--------------------5-----5--------7-----7--
E -------------------------3--------------5--------------
 

Ending: D

E -2-  
B –3-
G –2-
D –0-
A –0-
E -X-

enjoy!
Comments