Johnson Jack - Tomorrow Morning Chords & Tabs

 

Tomorrow Morning Chords & Tabs

Johnson Jack Chords & Tabs

Version: 1 Type: Tab 0 ratings
1 star 2 stars 3 stars 4 stars 5 stars
comments

Tomorrow Morning Tab

There is a mute thing after each chord. Listen to the song and you will be
able to tell what I mean.

----------55-------------------------3--------2---------------
----------55-------1/2---------------3--------3---------------
----------55-------1/2---------------4--------2---------------
-----0h2--77--0-4--1/2---4-2-0-------5-----0------------------
-0h2------55--------------------2-0--5---0--------------------
-------------------------------------3-3---------------------- x3

[ Tab from: http://www.guitartabs.cc/tabs/j/johnson_jack/tomorrow_morning_tab.html ]
Well thats alright
If thats alright
2000 miles but still
thats alright

And thats alright
If thats alright
I'll see you in the morning
If thats Alright

The Rest uses these chords. The chords with hammer ons, are played once
without the hammer on then played again with it. He only uses the G a few times
in the song, you will be able to hear it.

-5--2-----7-----5----3--
-5--2-----7h8---5----3--
-7--2h3---7-----6----4--
-7--2-----9-----7----5--
-5--4-----7-----7----5--
-0--2-----0-----5----3--

Comments