Johnson Jack - Taylor Chords & Tabs

 

Taylor Chords & Tabs

Johnson Jack Chords & Tabs

Version: 2 Type: Tab 4 ratings
1 star 2 stars 3 stars 4 stars 5 stars
comments

Taylor Tab

Jack Johnson 
"Taylor"





E------xx--------------------xx--------------xx------------------xx------
B------xx--------------------xx--------------xx------------------xx------
G------xx--------------------xx--------------xx------------------xx------
D------xx--------------------xx--------------xx-1h3p1-1p0--------xx------  
A-1-1h3xx--1h3p1-1--1--------xx-----1-2-0-2/3xx------3---3p1p0---xx------
E------xx-------3----3p1p0h11xx--123---------xx---------------011xx------
[ Tab from: http://www.guitartabs.cc/tabs/j/johnson_jack/taylor_tab_ver_2.html ]
E----------------------xx----------------------xx------
B----------------------xx----------------------xx------
G----------------------xx----------------------xx------
D----------------------xx-3-3h5-5-3-3-2p0------xx------
A-----1---1---1---1-1/3xx----------------3p0---xx------
E--1h3-1h3-1h3-1h3-----xx-------------------11-xx------

E--------xx--0-0--0-0-0-0-0-0-0--------0------------
B----4-4-xx--1-1--1/5-5-3-3-1-1--------1------------
G----2-2-xx--0-0--0-0-0-0-0-0-0--5p3-0-2------------
D----3-3-xx--2-2-----------------------3------------
A----3-3-xx--3-3------------------------------------
E--------xx-----------------------------------------


E--------------------1----|
B:---1----3------1---1----|
G:---0----0------2---2----|
D:---2----0------2---3----|
A:---3----2------0---3----|
E:-------------------1----|

Comments