Johnson Jack - Taylor Chords & Tabs

 

Taylor Chords & Tabs

Johnson Jack Chords & Tabs

Version: 1 Type: Tab 3 ratings
1 star 2 stars 3 stars 4 stars 5 stars
comments

Taylor Tab

jack johnson - taylor

Lachie

e|---------------------------------------------------------------------------|
B|---------------------------------------------------------------------------|
G|---------------------------------------------------------------------------|
D|------------------------------------------------------1-3-1-----1-0--------|
A|--1h3-----1h3-1---1---1------------------1---1---2-3---------3-------3-0---|
E|----------------3-------3h2p0-1-1--1-2-3-----------------------------------|
[ Tab from: http://www.guitartabs.cc/tabs/j/johnson_jack/taylor_tab.html ]
e|----------------------------------------------------------4----------------|
B|----------------------------------------------------------5-----1----------|
G|----------------------------------------------------------4----------------|
D|------------------------------------3-5--5-3-0------------3-3---2----------|
A|--------------1-----1-----1-----3--------------0----------------3----------|
E|--1-1-----1-3---1-3---1-3---1-1------------------3-1-1---------------------|

e|-0--0--0--0--0--0--0--0--0-------------------------------------------------|
B|-1--3--5--5--5--3--1--1--1-------------------------------------------------|
G|----------------------2--2-------------------------------------------------|
D|-------------------------3-------------------------------------------------|
A|---------------------------------------------------------------------------|
E|---------------------------------------------------------------------------|
Comments