Johnson Jack - Taylor (correct) Chords & Tabs

 

Taylor (correct) Chords & Tabs

Johnson Jack Chords & Tabs

Version: 1 Type: Tab 6 ratings
1 star 2 stars 3 stars 4 stars 5 stars
comments

Taylor (correct) Tab

Jack Johnson - Taylor - On and On

IF YOU USE IT, RATE IT.

Questions or comments welcome.  Email (mscotts1000@yahoo.com)
____________________________________________________________
p.m. = palm mute
/ = slide up
\ = slide down
x = free hand mute
____________________________________________________________

Intro:

e --------------------------------------------------------------------------------------------
b --------------------------------------------------------------------------------------------
g --------------------------------------------------------------------------------------------
D -------x--------------------------x-x-x-------------------x--1-1h3p1---1p0------------x-x-x-
A -0-1h3-x-1 1h3p1---1-1-------3-3--x-x-x--------1-2-0-2/3--x----------3-----3-0---3-3--x-x-x-
E -------x---------3-----0h2p0-1-1--x-x-x--1h2h3------------x--------------------0-1-1--x-x-x-
   p.m..                                   p.m............

e --------------------------------------------------------------------0--0-0-0-0-0--0-0-0-----
b ------------------------------------------------------------4-------1--1-3-3/5-5--3\1-1-----
g ------------------------------------------------------------2-------0--0-0-0-0-0--0-0-0-----
D -------------------------x--3-3/5-5-3p0-2p0----------x-x-x-----x-x--2-----------------------
A -----1-----1-----1-----3-x------------------0----3-3-x-x-x-----x-x--3-----------------------
E -1h3---1h3---1h3---1-1---x--------------------0--1-1-x-x-x-----x-x--------------------------
   p.m..................

e ------------ 
b -----1--1---
g -0h2----2---
D --------3---
A --------3---
E ------------

Verse:

e --------------------------------------------------------------------
b --------------------------------------------------------------------
g --------------------------------------------------------------------
D -2-2-2-2--0-0-0---0-0-0-0--0-0-0---2-2-2-2--0-0-0---3-3-3-3--0-0-0--
A -3-3-3-3--0-0-0---2-2-2-2--0-0-0---0-0-0-0--0-0-0---3-3-3-3--0-0-0-- 
E --------------------------------------------------------------------
   p.m..............................................................

Chrous:

e -------------3-5-3-3-3--x---------------------------
b -1-1-1-1--x--3-3-3-3-3--x--1-1-1-1--x--1-1-1-1-1----
g -0-0-0-0--x--0-0-0-0-0--x--2-2-2-2--x--2-2-2-2-2----
D -2-2-2-2--x--0-0-0-0-0--x--2-2-2-2--x--3-3-3-3-3----
A -3-3-3-3--x----------------x-x-x-x--x--3-3-3-3-3----
E ----------------------------------------------------

Verse:
[ Tab from: http://www.guitartabs.cc/tabs/j/johnson_jack/taylor_correct_tab.html ]
e --------------------------------------------------------------------
b --------------------------------------------------------------------
g --------------------------------------------------------------------
D -2-2-2-2--0-0-0---0-0-0-0--0-0-0---2-2-2-2--0-0-0---3-3-3-3--0-0-0--
A -3-3-3-3--0-0-0---2-2-2-2--0-0-0---0-0-0-0--0-0-0---3-3-3-3--0-0-0-- 
E --------------------------------------------------------------------
   p.m..............................................................


Chrous:

e -------------3-5-3-3-3--x---------------------------
b -1-1-1-1--x--3-3-3-3-3--x--1-1-1-1--x--1-1-1-1-1----
g -0-0-0-0--x--0-0-0-0-0--x--2-2-2-2--x--2-2-2-2-2----
D -2-2-2-2--x--0-0-0-0-0--x--2-2-2-2--x--3-3-3-3-3----
A -3-3-3-3--x----------------x-x-x-x--x--3-3-3-3-3----
E ----------------------------------------------------

Verse:

e --------------------------------------------------------------------
b --------------------------------------------------------------------
g --------------------------------------------------------------------
D -2-2-2-2--0-0-0---0-0-0-0--0-0-0---2-2-2-2--0-0-0---3-3-3-3--0-0-0--
A -3-3-3-3--0-0-0---2-2-2-2--0-0-0---0-0-0-0--0-0-0---3-3-3-3--0-0-0-- 
E --------------------------------------------------------------------
   p.m..............................................................


Chrous:

e -------------3-5-3-3-3--x---------------------------
b -1-1-1-1--x--3-3-3-3-3--x--1-1-1-1--x--1-1-1-1-1----
g -0-0-0-0--x--0-0-0-0-0--x--2-2-2-2--x--2-2-2-2-2----
D -2-2-2-2--x--0-0-0-0-0--x--2-2-2-2--x--3-3-3-3-3----
A -3-3-3-3--x----------------x-x-x-x--x--3-3-3-3-3----
E ----------------------------------------------------

Bridge:

e ----------------------------------------------
b ----------------------------------------------
g ----------------------------------------------
D -2-2-2-2/5-5-5-5-5-5/8-8-8-8/10-10-10-10-10---
A -3-3-3-3/4-4-4-4-4-4/7-7-7-7/9--9--9--9--9----
E -x-x-x-x-x-x-x-x-x-x-x-x-x-x-x--x--x--x--x----
   (x).free hand mute with thumb............

Outro:

e --------------------------------------------------------------------------------------------
b --------------------------------------------------------------------------------------------
g --------------------------------------------------------------------------------------------
D -------x--------------------------x-x-x-------------------x--1-1h3p1---1p0------------x-x-x-
A -0-1h3-x-1 1h3p1---1-1-------3-3--x-x-x--------1-2-0-2/3--x----------3-----3-0---3-3--x-x-x-
E -------x---------3-----0h2p0-1-1--x-x-x--1h2h3------------x--------------------0-1-1--x-x-x-
   p.m..                                   p.m............

e --------------------------------------------------------------------0--0-0-0-0-0--0-0-0-----
b ------------------------------------------------------------4-------1--1-3-3/5-5--3\1-1-----
g ------------------------------------------------------------2-------0--0-0-0-0-0--0-0-0-----
D -------------------------x--3-3/5-5-3p0-2p0----------x-x-x-----x-x--2-----------------------
A -----1-----1-----1-----3-x------------------0----3-3-x-x-x-----x-x--3-----------------------
E -1h3---1h3---1h3---1-1---x--------------------0--1-1-x-x-x-----x-x--------------------------
   p.m..................

e ------------ 
b -----1--1---
g -0h2----2---
D --------3---
A --------3---
E ------------
Comments