Johnson Jack - Symbol In My Driveway Chords & Tabs

 

Symbol In My Driveway Chords & Tabs

Johnson Jack Chords & Tabs

Version: 1 Type: Tab 3 ratings
1 star 2 stars 3 stars 4 stars 5 stars
comments

Symbol In My Driveway Tab

   
Jack Johnson
Symbol In My Driveway

 A 					    E	
-------------------------------------------------------------
-------------------------------------------------------------
-------------------------------------------------------------
----------------------------------9-9-11-9-9-9-11-9-9-9-11-9-
-7-7-9-7-7-7-9-7-7-7-9-7-7-7-9-7--7-7-7--7-7-7-7--7-7-7-7--7-
-5-5-5-5-5-5-5-5-5-5-5-5-5-5-5-5-----------------------------

 E   D#   D					    	
------------------------------------------
------------------------------------------
------------------------------------------
-9-9-8-8--7-7-9-7-7-7-9-7-7-7-9-7-7-7-9-7-
-7-7-6-6--5-5-5-5-5-5-5-5-5-5-5-5-5-5-5-5-
------------------------------------------
[ Tab from: http://www.guitartabs.cc/tabs/j/johnson_jack/symbol_in_my_driveway_tab.html ]
 A			E		    	
------------------------------------
------------------------------------
------------------------------------	Repeat for 
------------------9-9-11-9-9-9-11-9-	whole song
-7-7-9-7-7-7-9-7--7-7-7--7-7-7-7--7-
-5-5-5-5-5-5-5-5--------------------

	 A	
	---
	---
End	---
with	---
	-7-
	-5-

Lyrics:

I've got a symbol in my driveway
I've got a hundred million dollar friends
Got you a brand new weapon
Let's see how destructive we can be

Got a brand new set of stencils
I've been connecting all the dots
Got my plans in a ziploc bag
Let's see how unproductive we can be

Got a light bulb full of anger
And I can switch it on and off
Situations it can be so bright
I can't believe how pathetic we can be

Got a perfect set of blueprints
I'm gonna build somebody else
Might cost a little more than money
But what's man without his wealth

I've got a phosphorescent secret
But don't you tell nobody else
Next thing you know the whole world will be talking
About all the clues they got
They just ain't no use they got
Comments