Johnson Jack - Sitting, Waiting, Wishing..good Chords & Tabs

 

Sitting, Waiting, Wishing..good Chords & Tabs

Johnson Jack Chords & Tabs

Version: 1 Type: Tab 2 ratings
1 star 2 stars 3 stars 4 stars 5 stars
comments

Sitting, Waiting, Wishing..good Tab

THIS SONG IS IN DROP D- DADGBE... TUNE UR 6TH STRING DOWN SO THAT IT MATCHES UR 4TH STRING

THIS TAB IS BETTER THAN THE OTHER THAT ARE POSTED UP
BASICALLY BECAUSE JACK DOESNT JUST ALWAYS KEEP HIS GUITAR
REGULARLY TUNED.. THERES OPEN E, OPEN D, DROPPED D.. 
MAAAAAAAANY VARIATIONS THAN HES GETTING CREDIT FOR, 
SO LEARN THIS SONG IN THIS TUNING.. TRUST ME, IT SOUNDS GOOD!





JACK JOHNSON-SITTING WAITING WISHING






e|---------------------------------------3------|
B|---------------------------------------5------|
G|--------9--------------------5--5-5-5--3------|
D|-7-7-7--7---5-5-5--9--3-3-3--3--5-5-5--5------|
A|-7-7-7--10--5-5-5--5--3-3-3--3--3-3-3--3------|
D|-7-7-7--7---5-5-5--5--3-3-3--3----------------|



e|---------------------------------------3------|
B|---------------------------------------5------|
G|--------9--------------------5--5-5-5--3------|
D|-7-7-7--7---5-5-5--9--3-3-3--3--5-5-5--5------|
A|-7-7-7--10--5-5-5--5--3-3-3--3--3-3-3--3------|
D|-7-7-7--7---5-5-5--5--3-3-3--3----------------|





e|----------------------------------------------|
B|----------------------------------------------|
G|-----------------------------9----------9-----|
D|--9\-2-2-2-2-2-2-2-2--7-7-7--7---7-7-7--7-----|
A|--9\-2-2-2-2-2-2-2-2--7-7-7--10--7-7-7--10----|
D|--9\-2-2-2-2-2-2-2-2--7-7-7--7---7-7-7--7-----|

[ Tab from: http://www.guitartabs.cc/tabs/j/johnson_jack/sitting_waiting_wishinggood_tab.html ]
e|----------------------------------------------|
B|----------------------------------------------|
G|-----------------------------9----------9-----|
D|--9\-2-2-2-2-2-2-2-2--7-7-7--7---7-7-7--7-----|
A|--9\-2-2-2-2-2-2-2-2--7-7-7--10--7-7-7--10----|
D|--9\-2-2-2-2-2-2-2-2--7-7-7--7---7-7-7--7-----|


e|---------------------------------------3------|
B|---------------------------------------5------|
G|--------9--------------------5--5-5-5--3------|
D|-7-7-7--7---5-5-5--9--3-3-3--3--5-5-5--5------|
A|-7-7-7--10--5-5-5--5--3-3-3--3--3-3-3--3------|
D|-7-7-7--7---5-5-5--5--3-3-3--3----------------|

e|----------------------------------------------|
B|----------------------------------------------|
G|-----------------------------9----------9-----|
D|--9\-2-2-2-2-2-2-2-2--7-7-7--7---7-7-7--7-----|
A|--9\-2-2-2-2-2-2-2-2--7-7-7--10--7-7-7--10----|
D|--9\-2-2-2-2-2-2-2-2--7-7-7--7---7-7-7--7-----|


e|----------------------------------------------|
B|----------------------------------------------|
G|-5-4-------------5-4-5s9-7-5-7-5-5-5-5-4-4-2-4-2-|
D|-5-2-7-5-3-5-2---5-2--------------------------|
A|-3-2-7-5-3-5-2---3-2--------------------------|
D|-----7-5-3-5-2--------------------------------|

e|----------------------------------------------|
B|-10-8--------------------10-8-----------------|
G|------9-7-7h9-7h9-7h9---------9-7-7h9-7h9-7h9-|
D|----------------------------------------------|
A|----------------------------------------------|
D|----------------------------------------------|

e|---------------------------------------3------|
B|---------------------------------------5------|
G|--------9--------------------5--5-5-5--3------|
D|-7-7-7--7---5-5-5--9--3-3-3--3--5-5-5--5------|
A|-7-7-7--10--5-5-5--5--3-3-3--3--3-3-3--3------|
D|-7-7-7--7---5-5-5--5--3-3-3--3----------------|



JUST MSG ME ON MYSPACE IF U FIND ME.. HAHA PEACE
Comments