Johnson Jack - Sitting Waiting Wishing Chords & Tabs

 

Sitting Waiting Wishing Chords & Tabs

Johnson Jack Chords & Tabs

Version: 1 Type: Tab 6 ratings
1 star 2 stars 3 stars 4 stars 5 stars
comments

Sitting Waiting Wishing Tab

Jack Johnson
Sitting, Waiting, Wishing
Tabbed by Pat McInnis (pat@patmcinnis.com)
[ Tab from: http://www.guitartabs.cc/tabs/j/johnson_jack/sitting_waiting_wishing_tab.html ]
Verse
E----------------------------------------------------------------
B-------1-1-1-1--------------------------------------------------
G-------0-0-0-0-------4-4-4-4-------2-2-2-2----------7--7--7--7--
D-------2-2-2-2-------3-3-3-3-------1-1-1-1----------8--8--8--8--
A--7-7--0-0-0-0--5-5--5-5-5-5--3-3--3-3-3-3--10-10--10-10-10-10--
E--5-5-----------3-3--3-3-3-3--1-1--1-1-1-1---8--8---8--8--8--8--

Chorus
E--0--0--0--0--0--0--0--0--
B--0--0--0--0--1--1--1--1--
G--1--1--1--1--2--0--2--0--
D--2--0--2--0--2--2--2--2--
A--2--2--2--2--0--0--0--0--
E--0--0--0--0--------------

"I keep playing your part..."
E-----0--1--3--
B--1--0--1--0--
G--0--1--2--0--
D--2--2--3--0--
A--3--2--3--2--
E-----0--1--3--

End on Am. (-02210)
Comments