Johnson Jack - Providence Solo Chords & Tabs

 

Providence Solo Chords & Tabs

Johnson Jack Chords & Tabs

Version: 1 Type: Tab 0 ratings
1 star 2 stars 3 stars 4 stars 5 stars
comments

Providence Solo Tab

Author/Artist: Jack Johnson
Title: Providence
Album: Unrealeased

Figure 1:
x4 Solo
-|---x-----------------|-----------x----------------------
-|---x-----------------|-----------x----------------------
-|---x-----------6-----|-----------x----------------------
-|---x---------7-------|-----------x---------7---7--------
-|---x-----7-9---------|-----------x-----7-9---9----------
-|-5-x--/9-------------|-0h5-0h5-5-x--/9------------------

[ Tab from: http://www.guitartabs.cc/tabs/j/johnson_jack/providence_solo_tab.html ]
Figure 2:
x4 (+ Drum/Bass)
-|--------------------------------------------------------
-|-----------------5--------------------------------------
-|---------------6---6------------------------------------
-|-------------7-------7---7---7--------------------------
-|---------7-9-----------9---9----------------------------
-|-5----/9------------------------------------------------

-|--------------------------------------------------------
-|-----------------5---7--5------------------------------
-|---------------6---6------6-----------------------------
-|-------------7--------------7---7-----------------------
-|---------7-9------------------9-------------------------
-|-5----/9------------------------------------------------

Repeat Figure 1:
x4


-Dylan Taylor (jlennon69@hotmail.com)
Comments