Johnson Jack - Losing Hope Chords & Tabs

 

Losing Hope Chords & Tabs

Johnson Jack Chords & Tabs

Version: 1 Type: Chords 0 ratings
1 star 2 stars 3 stars 4 stars 5 stars
comments

Losing Hope Chords

   
Tabbed by Jesse Martin


Verse/Intro
-------------0-------3---------------------------------------------
-----0h1----1------0--------------------------------------------------
-------------0-------0---------------------------------------------
---2---------2------0------------------------------------------------
-0--------3-3-------2------------------------------------------------
------------------3--3---------------------------------------------
	A					   C		G
I got a faulty parachute		I got a stranger's friend
	A					C		G
An exciting change in			My butchers blend
	A					C		G	
A symbol on the ceiling		With the flick of a switch
	A					C		G	F
Yeah my new found hero		And my enemy's ditching
[ Tab from: http://www.guitartabs.cc/tabs/j/johnson_jack/losing_hope_crd.html ]
Chorus
Losin hope is easy	when your only friend is gone and every time you turn around
--------------0-----	           Dm				         G	              Dm		              G
--------------1-----
--------------2-----	        Well it all it all just seems to change
--------------2-----	           Dm		            G			                                   C	     B	    A
-3----2-----0-----
--------------------



Well somebody's something was left in a room
And now that its gone well of course we assume
Somebody else needed something so bad
They took everything somebody had

Losing hope is easy
When your only friend is gone
And every time you look around
Well, it all, it all just seems to change

The mark was left
Man it's never the same
Next time that you shoot
Make sure that you aim
Open windows with passing cars
A brand new night
With the same old stars

chorus

Feed the fool
A piece of the pie
Make a fool of his system
Make a fool of his mind
Give him bottles of lies
And maybe he'll find
His place in heaven
Cause he might just die

chorus
But hanging on is easy
When you've got a friend to call
When nothings making sense at all
You're not the only one that's afraid of change
Comments