Johnson Jack - Inaudible Melody Chords & Tabs

 

Inaudible Melody Chords & Tabs

Johnson Jack Chords & Tabs

Version: 1 Type: Tab 3 ratings
1 star 2 stars 3 stars 4 stars 5 stars
comments

Inaudible Melody Tab

   
**This file is the author's own work 
and represents their interpretation**

Using Stephen Clallender and Allan Carruthers tab, 
I made some chord and intro changes and filled in the rest 
of the tab throughout to complete the song.
Have fun!  Michael Ray (musicalmike@hotmail.com)    



All chords with exception to C#7 are played as bar chords.
During most of verses and chorus, he hits the bass note
followed by a strum.

   F#	 B     C#    Bb	   G#        C#
E--2--|--2--|--4--|--1--|--4--|   |-----|
B--2--|--4--|--6--|--3--|--4--|   |-----|
G--3--|--4--|--6--|--3--|--5--|   |--4--|
D--4--|--4--|--6--|--3--|--4--|	  |--3--|
A--4--|--2--|--4--|--1--|--6--|   |--4--|
E--2--|-----|-----|-----|--4--|   |-----|


INTRO:(With a bluesy feel)

F#		       C#7    d#m		       A#7
E--2--2-2(h)4(p)2---2------|--6-----6-6(h)9(p)6---6----6--|
B--2-------------2---X-----|--6h7---------------6---X--6--|
G--3-----------------X--4--|--6h8-------------------X--7--|
D--4-----------------X--3--|--6h8-------------------X--6--|
A--4-----------------X--4--|--6---------------------X--8--|
E--2-----------------------|---------------------------6--|

   B			a#m   g#m7
E--7--7-7(h)9(p)7---7----6--|--4----|
B--7--------------7---X--6--|--4----|
G--8------------------X--6--|--4----|
D--9------------------X--8--|--4----|
A--9------------------X--8--|--6----|
E--7---------------------6--|--4----|

               
E-----------|-------2--5(p)2--2---------------------|
B-----------|-/5-5--2-----------2-------------------|
G-----------|-/6-6--2---------------4--2------------|
D-----------|-------------------------------2-3-4---|
A-----------|---------------------------------------|
E--0--1--2--|---------------------------------------|
		(keep finger barrred on E,B,G 2nd fret)


E--------------------------------------|
B-/5-5---------------------------------|
G-/6-6--4b--2--------2(h)4--2----------|
D--------------4--2--------------2-3-4-|
A--------------------------------------|
E--------------------------------------|
(After bend, bar finger across D & G 2nd Fret) 

		 C#7
E-------2--5(p)0-----|
B-/5-5--2------------|
G-/6-6--2---------4--|
D-----------------3--|
A-----------------4--|
E--------------------|


VERSES (he plays these riffs for the first couple verses, 
	then its just bass note + strum.  Listen to recording 
	for strum pattern and feel)
[ Tab from: http://www.guitartabs.cc/tabs/j/johnson_jack/inaudible_melody_tab.html ]
1.Brushfire fairytales          itsy bitsy diamond wells
2.Big fat hurricanes  	        yellow bellied given names
 	      F#			     B
     E------------2--------|	 |---------------2--------|
     B------------2--------|	 |---------------4--------|
Riff G------------3--Strum-|Riff |---------------4--Strum-|
 1   D------4-----4--F#----|  2  |------4-4------4--B-----|
     A--/6--------4--Chord-|	 |--/6------4-2--2--Chord-|
     E---------2--2--------|	 |------------------------|

	
3.Well shortcuts can....          And in the end...  To rebound...
                  C#		    B		     F#	
     E---------------4--------|  |--2----------------2--------|
Riff B---------------6--------|  |--4--Strum---------2--Strum-|
 3   G---------------6--Strum-|  |--4--B-------------3--F#----|
     D------4--------6--C#----|  |--4--Chord---------4--Chord-|
     A--/6-----6--4--4--Chord-|  |--2----------------4--------|
     E------------------------|  |-------------------2--------|

 
		     C#7	
		E----------|
		B----------|
		G------4---|
		D------3---|
		A------4---|
		E----------|

(Begin Bass note with chord pattern)	

No Chord	    F#              B   F#   B
Well dust off your thinking caps...
   
   C#              B      	    F#   
...run we have found.....inaudibly free..........


		     C#7	
		E----------|
		B----------|
		G------4---|
		D------3---|
		A------4---|
		E----------|
	(Chord right before chorus) 


CHORUS (Bass note and strum)

F#          Bb       B        G#7
Slow down...moving...frames...moving like that.
VERSE
F#          Bb            B             G#7
Inaudible...narrational...unobtrusive...notice nothing...=20
F#       Bb            B          G#7
visual...frame-lines...chopping...Eisenstein...=20
CHORUS
F#          Bb       B        G#7
Slow down...moving...frames...moving like that.


Solo:
E--11-14-11----11~-|-11-14-11--------|-11-14-11--------|-11-11-11-11-14\|
B--11-------14-----|-11-------14-11~-|-11-------14-12~-|-11-------------|
G------------------|-----------------|-----------------|-----------------
D------------------|-----------------|-----------------|-----------------
A------------------|-----------------|-----------------|-----------------
E------------------|-----------------|-----------------|-----------------


F#               	Bb  		  B  		
Well Plato's cave...	Demanding.....  I wish...  

	    G#7		G7
In all the things...	made the screen.

CHORUS
F#          Bb       B        G#7
Slow down...moving...frames...moving like that.
F#          Bb       B        G#7
Slow down...moving...frames...moving like that.

***Ends with the INTRO guitar part.
****Cadences on the F# chord.



Comments