Johnson Jack - Good People Chords & Tabs

 

Good People Chords & Tabs

Johnson Jack Chords & Tabs

Version: 1 Type: Tab 5 ratings
1 star 2 stars 3 stars 4 stars 5 stars
comments

Good People Tab

   
Good People by Jack Johnson
In Between Dreams
Tabbed by Brendan Ratzlaff

Intro            
       Gradual ¾ bend
              v
|-------------------------------------7--5---------------------------------------------------
|---------5b---5---3-----3--------5---x-----7--------5b--5--3--3------5-------5---5---5---3--
|--4---4--------------4---------------x---------4--4--------------4--------------------------
|--------------------------------------------------------------------------------------------
|---------------------------4---4---------------------------------------4---4----------------
|--------------------------------------------------------------------------------------------
[ Tab from: http://www.guitartabs.cc/tabs/j/johnson_jack/good_people_tab.html ]
The rest of the song is mainly the following chords 
Play the bass note twice and then quickly mute the chord after playing it once
               B              E               C#m              F#   
|---------------------0---0---0------------------------2---2---2----------------------------------------------------------
|--2-----2-----2--------------1--------4---4---4---------------4----------------------------------------------------------
|--------------4--------------2----------------6---------------4----------------------------------------------------------
|--------------4--------------2----------------6---------------3----------------------------------------------------------
|--------------4--------------0----------------5---------------2----------------------------------------------------------
|--------------2--------------0----------------4---------------2----------------------------------------------------------

Then during this part he bounces between B and C# and he hits C between them every time
Sitting around feeling far away…
	B	C	C#
|--------x--------x---------x------------
|--------2--------3---------4------------
|--------4--------5---------6------------
|--------4--------5---------6------------
|--------4--------5---------6------------
|--------2--------3---------4------------

And that’s it! I’ve probably made some mistakes but just listen to the song and it sounds pretty 
good. Great song. Great album. Great Artist. Have fun and take it easy.

Questions - b_ratzlaff@hotmail.com

Paz 
Comments