Johnson Jack - Cookie Jar Chords & Tabs

 

Cookie Jar Chords & Tabs

Johnson Jack Chords & Tabs

Version: 2 Type: Tab 1 rating
1 star 2 stars 3 stars 4 stars 5 stars
comments

Cookie Jar Tab

By: Mike Geezie
Artist: Jack Johnson
This is Cookie jar. This song is great.
It was easy to figure out, it sounds right but I’m not positive, anyway here you go.

This is the CD version. You have to listen to it to get the rhythm down but it goes like this…

  

              Slap         scrape          
e-----------2-x------------x----------------------
B-----------2-x----5-------x----------------------
G-------------x----6-------x----------------------
D------4------x----6-------x----------------------
A------4------x----4-------x----------------------
E------2------x------------x----------------------
                  And I will turn on the tv.. 

[ Tab from: http://www.guitartabs.cc/tabs/j/johnson_jack/cookie_jar_tab_ver_2.html ]
e-----------2-x------------x---------------------
B-----------2-x----5-------x---------------------
G------4------x----6-------x---------------------
D------4------x----6-------x---------------------
A------2------x----4-------x---------------------
E-------------x------------x----------------------
              But its so embarrassing..

Repeat with the other lyrics and the you add the sweet little part 

e-----------2-x-----------------------------2-x-------
B-----------2-x----5------------------------2-x----5--
G-------------x----6-------------------4------x----6--
D------4------x----6--------4h6-4------4------x----6--
A------4------x----4----4h7-------7----2------x----4--
E------2------x-------------------------------x-------
                     Good part
Comments