Johnson Jack - Cookie Jar Chords & Tabs

 

Cookie Jar Chords & Tabs

Johnson Jack Chords & Tabs

Version: 1 Type: Tab 0 ratings
1 star 2 stars 3 stars 4 stars 5 stars
comments

Cookie Jar Tab

Chords:
[ Tab from: http://www.guitartabs.cc/tabs/j/johnson_jack/cookie_jar_tab.html ]
e-----4-----4--
B--4--5--2--5--
G--4--6--3--6--
D--4--6--4--6--
A--2--4--4--4--
E--------2-----

Riff:

G------1--------
D-----2-4-2-----
A--2h4-----2-4--

Love the new album!

-Jon Barnes
Comments