Johnson Jack - Brushfire Fairytales Chords & Tabs

 

Brushfire Fairytales Chords & Tabs

Johnson Jack Chords & Tabs

Version: 1 Type: Tab 3 ratings
1 star 2 stars 3 stars 4 stars 5 stars
comments

Brushfire Fairytales Tab

This song is played with a Capo in 2nd Fret

e :-0-0-0h2p0---0----------------4-4--4h7p4---4---4------5-5--5h8p5---5---4-4---2-2-
B :-0-0-------0-----0------------5-5--------4-----4------5-5--------5-----4-4---2-2-
G :-1-1------------------2-2-----4-4--------------4------6-6--------------4-4---2-2-
D :-2-2------------------1-1-----6-6---------------------7-7--------------4-4---2-2-
A :-2-2-----------0------2-2-----4-4---------------------5-5--------------6-6---4-4-
E :-0-0-------------------------------------------------------------------4-4---2-4-
[ Tab from: http://www.guitartabs.cc/tabs/j/johnson_jack/brushfire_fairytales_tab.html ]
e :-----------0---3p0--------------------------------------------------------------
B :-1/3--1/3--0-------0------------------1/3--1/3----------------------------------
G :-2/4--2/4--1---------0--2-2p0---------2/4--2/4--------2b-----2-2p0--------------
D :-----------0---------------0--1--2------------------------2----------0-1-2------
A :--------------------------------------------------------------------------------
E :--------------------------------------------------------------------------------

e :----------0-x-0-0-0----------------0-x-0-0--------------------------------------
B :----------0-x-0-0-0----------------2-x-2-2--------------------------------------
G :----------1-x-1-1-1----------------2-x-2-2--------------------------------------
D :----2-----2-x-2-2-2-------2-2------2-x-2-2--------------------------------------
A :--4-------2-x-2-2-2-----4-----0----0-x-0-0--------------------------------------
E :------0---0-x-0-0-0----------------0-x-0-0--------------------------------------
Comments