Johnson Jack - Better Together Chords & Tabs

 

Better Together Chords & Tabs

Johnson Jack Chords & Tabs

Version: 2 Type: Tab 4 ratings
1 star 2 stars 3 stars 4 stars 5 stars
comments

Better Together Tab

Title: BETTER TOGETHER
Band: JACK JOHNSON
Album: IN BETWEEN DREAMS
Transcribed By: TYLER HEILMAN

INTRO
E|--------------------------------------------------------------------
B|------8------6------3-------1------3------6------8-------(6)--------
G|-5/7----7\5----5\2----2\0-----0/2----2/5----5/7----7\5------(5)-----
D|--------------------------------------------------------------------
A|--------------------------------------------------------------------
E|--------------------------------------------------------------------

VERSE
E|------------------------------------------------5------3-------8----
B|------10--------10--------6-------5------3------5------3-------8----
G|------10--------10--------5-------5------3------6------4-------9----
D|---10-----------10--------7-------5------3--------------------------
A|-8----------7---------5-------3------1------------------------------
E|---------------------------------------------5------3-------8-------
[ Tab from: http://www.guitartabs.cc/tabs/j/johnson_jack/better_together_tab_ver_2.html ]
CHORUS
E|-----6----6----6-------------8----8----8----------------------------
B|-----6----6----6-------------8----8----8----------------------------
G|-----7----7----7-------------9----9----9------(REPEAT 4 TIMES)------
D|--------------------------------------------------------------------
A|--------------------------------------------------------------------
E|-6--------6--------------8--------8---------------------------------

BRIDGE
E|-----5----5----5----------------------------------------------------
B|-----6----6----6-------------5----5----5----------------------------
G|-----7----7----7-------------5----5----5------(REPEAT 4 TIMES)------
D|-----------------------------5----5----5----------------------------
A|-5--------5--------------3--------3---------------------------------
E|--------------------------------------------------------------------

BRIDGE CONTINUED
E|-----6----6----6-------------8----8----8----------------------------
B|-----6----6----6-------------8----8----8----------------------------
G|-----7----7----7-------------9----9----9------(REPEAT 4 TIMES)------
D|--------------------------------------------------------------------
A|--------------------------------------------------------------------
E|-6--------6--------------8--------8---------------------------------
	







Comments