Johnson Jack - Belle Chords & Tabs

 

Belle Chords & Tabs

Johnson Jack Chords & Tabs

Version: 2 Type: Tab 11 ratings
1 star 2 stars 3 stars 4 stars 5 stars
comments

Belle Tab

Jack Johnson 
Belle
In Between Dreams

this is the correct way to play it. At Jazzfest this year he played this 
song and this is how he played it.

[ Tab from: http://www.guitartabs.cc/tabs/j/johnson_jack/belle_tab_ver_2.html ]
|-----------------------------|-----------------------------|
|----3--------3-----3-------3-|----3--------3-----3-------3-|
|----4--------4-----4------4--|----3--------3-----3------3--| 
|----4--------4-----2-----2---|----3--------3-----2-----2---|
|-----------------------------|-----------------------------|
|-3-----3--3-----3-----3------|-3-----3--3-----3-----3------|
 
   repeat first half of the part above this play this  
   
|----------------------------------|------------------------------------------------|
|----7--------7--------8-----8-8-X-|----5--------5-----5-------5--------5--------5--|
|----7--------7--------8-----8-8-X-|----5--------5-----5------5---------5--------5--|
|----7--------7--------7-----7-7-X-|----5--------5-----4-----4----------5--------5--|
|----------------------------------|------------------------------------------------|
|-7-----7--7-----7--8-----8--------|-5-----5--5-----5-----5-------X--5-----5--5-----|

and it finishes with this

|-------------------------------------------------|--------------------------------|
|-----4-------4--------3--------3-------8-------8-|-------5--------5-----4-------4-|
|-----5------5---------4--------4-------8------8--|-------5--------5-----5------5--|
|-----4-----4----------4--------4-------7-----7---|-------5--------5-----4-----4---|
|-------------------------------------------------|--------------------------------|
|--4-----4-------X--3-----3--3-----3--8----8------|-X--5-----5--5-----4-----4------|

then it repeats the whole thing 2 more times.
that is the correct way to play it.







Comments